Guitaretab - guitar tabs
Song name
# A B C D E F G H I J K L M N O P Q R S T U V W X Y Z

Boyce Avenue - We Cant Stop tab

We Can't Stop - Boyce Avenue feat. Bea Miller
Tabbed by: Kingsley

Tuning: Standard (Capo 2nd fret)

Chords used
   C      Em      Am       F  
e|-0-|   |-0-|   |-0-|   |-0-|
B|-1-|   |-0-|   |-1-|   |-1-|
G|-0-|   |-0-|   |-2-|   |-2-|
D|-2-|   |-2-|   |-2-|   |-3-|
A|-3-|   |-2-|   |-0-|   |-3-|
E|-0-|   |-0-|   |-0-|   |-0-|

Intro:
   C     Em     Am    F
e|-------------------------|
B|-1-----0---------1-----1-|
G|---0-----0---2-----2-----|
D|-----2-----0---2-----3---|
A|-3-----2-----0-----3-----|
E|-------------------------|

Verse:
   C   Em  Am  F
e|---------------|
B|-1---0---1---1-|
G|-0---0---2---2-|
D|---------------| x2
A|-3---2---0---3-|
E|---------------|

Bridge:
   C         Em        Am        F
e|-------------------------------------|
B|-1-----1h3-0-----1p0-----1---------1-|
G|---0---------0-------2-----2s4-2-----|
D|-----2---------2-------2---------3---|
A|-3---------2---------0---------3-----|
E|-------------------------------------|

Chorus:
            C   
And we can't stop
            Em
And we won't stop
                   Am
Can't you see it's we who own the night
                 F
Can't you see it we who bout' that life
            C   
And we can't stop
            Em
And we won't stop
              Am
We run things
Things don't run we
           F
Don't take nothing from nobody

   C     Em     Am    F
e|-------------------------|
B|-1-----0---------1-----1-|
G|---0-----0---2-----2-----|
D|-----2-----0---2-----3---|
A|-3-----2-----0-----3-----|
E|-------------------------|

Verse:
   C   Em  Am  F
e|---------------|
B|-1---0---1---1-|
G|-0---0---2---2-|
D|---------------| x2
A|-3---2---0---3-|
E|---------------|
[ Tab from: http://www.guitaretab.com/b/boyce-avenue/368112.html ]
Bridge:
   C         Em        Am        F
e|-------------------------------------|
B|-1-----1h3-0-----1p0-----1---------1-|
G|---0---------0-------2-----2s4-2-----|
D|-----2---------2-------2---------3---|
A|-3---------2---------0---------3-----|
E|-------------------------------------|

Chorus:
            C   
And we can't stop
            Em
And we won't stop
                   Am
Can't you see it's we who own the night
                 F
Can't you see it we who bout' that life
            C   
And we can't stop
            Em
And we won't stop
              Am
We run things
Things don't run we
           F
Don't take nothing from nobody

Intro: 
   C   Em  Am  F
e|---------------|
B|-1---0---1---1-|
G|-0---0---2---2-|
D|---------------|
A|-3---2---0---3-|
E|---------------|

   C     Em     Am    F
e|-------------------------|
B|-1-----0---------1-----1-|
G|---0-----0---2-----2-----|
D|-----2-----0---2-----3---|
A|-3-----2-----0-----3-----|
E|-------------------------|

Chorus/Outro:
            C   
And we can't stop
            Em
And we won't stop
                   Am
Can't you see it's we who own the night
                 F
Can't you see it we who bout' that life
              C   
And we can't stop
             Em
And we won't stop
              Am
We run things
Things don't run we
           F
Don't take nothing from nobody
C
  It's our party we can do what we want to
Em  
  It's our house we can love who we want to
                     Am
  Can't you see it's we who own the night
                   F
  Can't you see it we who bout' that life
C
  It's our song we can sing we if we want to
Em
  It's my mouth I can say what I want to
             Am
We run things
Things don't run we
F
 'Cause we can't stop
Related for We Cant Stop tab
We Cant Stop chords by Boyce Avenue