Song name
# A B C D E F G H I J K L M N O P Q R S T U V W X Y Z

Boys Night Out - Dying tab

For those of us without Guitar Pro.

This was tabbed tuned a whole step down.


|---------------------------9---------------9------------------------|
|-9^(10)^9------------------9---------10h12---12-10-9----------------|
|----------9------------------------9-----------------/11-9----9-----|
|------------11-11^(12)^11-----9h11-------------------------11---9-7-|
|--------------------------------------------------------------------|
|--------------------------0-----------------------------------------|

|---12------10-9------7-5-4-------------2-2--------------------------|
|---------------------------5-2-0-1^(2)-2-2--------------------------|
|/9----11-9------9-7------------------------/11\---------------------|
|--------------------------------------------------------------------|
|-------------------------------------------------------2-2-----2-4--|
|-------------------------------------------------2-2-5-----2-5------|

|--------------------14/-----------12-14-16-17-19-19/21-19-16-16h17p16-14-|
|--------------5----------------14----------------------------------------|
|-----------/6------------------------------------------------------------|
|-6-6/7-6--------7--------------------------------------------------------|
|---------7---------------------------------------------------------------|
|-------------------------------------------------------------------------|

|----12-14-16-17-19-19/21-19-16-16h17p16-14----16h17p16-------------------|
|-14----------------------------------------------------17----------------|
|----------------------------------------------------------12^(14)^12-----|
|---------------------------------------------------------------------14--|
|-------------------------------------------------------------------------|
|-------------------------------------------------------------------------|

                                             |    This repeats x2 |
|-----14-------12-------------/17-16-12--------------9--------12----------|
|-/14----14-12----12/10-9---------------14^----------9--------12----------|
|-------------------------9-------------16^---9h11p9---9h11p9-------------|
|-------------------------------------------------------------------------|
|-------------------------------------------------------------------------|
|-------------------------------------------------------------------------|

|--------------12---------14--------17---------------------19-17----------|
|--------------12---------14--------17----/17----17-/19-19----------------|
|-9h11p9-----------9h11p9----9h11p9-----------18--------------------------|
|--------9-7h9------------------------------------------------------------|
|-------------------------------------------------------------------------|
|-------------------------------------------------------------------------|
                                                   Then the chorus kicks in
					           and i didnt feel like
 						   tabbing the last little bit.
Tap to rate this tab
 
# A B C D E F G H I J K L M N O P Q R S T U V W X Y Z