Song name
# A B C D E F G H I J K L M N O P Q R S T U V W X Y Z

Brad Paisley - Shes Everything tab

Help us improve GuitareTab! Take a short survey!
Bend=b
Vibrato=v
pulloff=p
slideon=/
slideoff=\
Repeat= o|
 mute=x

Intro:

E---7-----|-3---------|-12------|-----|
B----9/10-|--5p3----3-|---13----|-----|
G-/9------|-----5-5b--|-----12b-|-9p7-|
D---------|-----------|---------|-----|
A---------|-----------|---------|-----|
E---------|-----------|---------|-----|

Verse 1
    C           Am         F        G C Am F         2x
E----------|-------0---|----------|-3-0-0-1--|
B---1--1---|---1--1-1--|---1--1---|-0-1-1-1--|
G---0--0---|---2--2----|---2--2---|-0-0-2-2-o|
D--2--2----|--2--2-----|--3--3----|-0-2-2-3--|
A-3--3-----|-0--0------|-0--0-----|-2-3-0-0-o|
E----------|-----------|----------|-3-0-x-0--|

Chorus:                       Chorus riff 1
  F   C   C F Am         C                   F    C
E-1---0---0-1-0--0-0-0---0-|----------------|-1---0-|
B-1---1---1-1-1--1-0-1---1-|----------------|-1---1-|
G-2---0---0-2-2--2-0-2---0-|----9/12b-------|-2---0-|
D-3---2---2-3-2--2-2-2---2-|-7h9-------5-5\-|-3---2-|
A-0---3---3-0-0--0-0-0---3-|---------12-----|-0---3-|
E-x---0---0-x-x--x-x-x---0-|----------------|-x---0-|

Intro to verse 2
E-----------|----------|-------5-|
B-----------|-----5/10-|-----5b--|
G--7p5-5b-7-|--5-7-----|---------|
D-5---------|-7--------|----5----|
A-----------|----------|-0h3-----|
E-----------|----------|---------|

play verse 1 again then go straight into the chorus but instead of playing chorus riff 1
chorus riff 2 which is shown below:

E-9--------|
B--15b-12b-|
G----------|
D----------|
A----------|
E----------|

solo:
E---------------------------------------------------------------15b-12-15-|
B-------10---10---------------7-9b-7h9p7-9/12-15b-15b-9/12-15-12----------|
G-----12--12b--9b-------5h7p5-----------9---------------------------------|
D----------------5-5-5-5-----5--------------------------------------------|
A-/5h7--------------------------------------------------------------------|
E-------------------------------------------------------------------------|

E-15h17p15--------15h17p15-------------------|
B---------17-15-17--------17-15-17-17b---13v-|
G--------------------------------------------|
D--------------------------------------------|
A--------------------------------------------|
E--------------------------------------------|

After the solo play this which uses the same chords but has a different way of playing them:
   C     Am     F           G with a muted high E string
E------|-0---|-1---1p0----|-x---|
B------|-1---|-1------2-0-|-0---|
G---0--|-2---|-2----------|-0---|
D--2---|-2---|-3----------|-0---|
A-3----|-0---|-0----------|-2---|
E------|-x---|-x----------|-3---|

Then play the shortened version of the chorus:
  F   C  C F Am        C    F   Am  C
E-1---0--0-1-0--0-0-0---0---1---0---0-|
B-1---1--1-1-1--1-0-1---1---1---1---1-|
G-2---0--0-2-2--2-0-2---0---2---2---0-|
D-3---2--2-3-2--2-2-2---2---3---2---2-|
A-0---3--3-0-0--0-0-0---3---0---0---3-|
E-x---0--0-x-x--x-x-x---0---x---x---0-|

Outro solo:
E------------------------------------------------9--------------------------|
B----------------------------10-----------10---10-10p9----------------------|
G----------------7h8h10-12b----12p10--------12b-------10-10p9---------------|
D-----------5h6h8-------------------12-12v-------------------11-11p9--------|
A------0h3h5--------------------------------------------------------11-11p9-|
E-0h3h5---------------------------------------------------------------------|

E----------------------------------------------------17b-20b-20b-20b-20b-17-|
B------16b-15-15p13--12p10--15b-15-13-15-16b-16-13-16-----------------------|
G------------------16-----13------------------------------------------------|
D---------------------------------------------------------------------------|
A-11------------------------------------------------------------------------|
E---------------------------------------------------------------------------|

E------------------15-----15-----15------13-----9-----8-|
B-17h19-19b---15-17--15-17--15-17---13-15---9-12--8-10--|
G-------------------------------------------------------|
D-------------------------------------------------------|
A-------------------------------------------------------|
E-------------------------------------------------------|

E----8----8----8-|
B----------------|
G-7-9--7-9--7-9-o|
D----------------|
A---------------o|
E----------------|

This song is a another one of my favorites from brad paisley.  the lead licks and solos
good when you play it with a DS-1 Distortion pedal. You want the level and distortion
to be turned all the way down.  the tone knob needs to be turned to the dot on the right 
side.  Hope you like it and PLEASE RATE IT!!!!!!!!!!!!!!!!!!!!!!!!!!!!!!!!!!!!!!!!!!!!!!!
Related for Shes Everything tab