Song name
# A B C D E F G H I J K L M N O P Q R S T U V W X Y Z

Brad Paisley - Little Moments tab

E-----------------------------------------------------------|
B-----------------------------------------------------------|
G-----2---------------------------------------2h4-4b-2-7b-7-|
D-----2h4-2---2---------------------------2h4---------------|
A-----------4---4---4-4b-4r-2---------2h4-------------------|
E-0-0-------------0-----------0-0h2h4-----------------------|

E------------------------------------------------------------|
B---------------------------------10-12b-12r-----12----------|
G-7-9/7---------9b-9r-7-9----9/11------------11b----11r-9-14-|
D-------7-7---------------11---------------------------------|
A-----------9-7----------------------------------------------|
E------------------------------------------------------------|

E----------------17-16---------------------------------------|
B----14-15-17----------17b-17r-14h15p14----------------------|
G-16----------14-----------------------16-14-14----14-9----9-|
D--------------------------------------------14h16-14-9h11-9-|
A------------------------------------------------------------|
E------------------------------------------------------------|

E-----------------------------------------------------------|
B-----------------------------------------------------------|
G-----------------------------------------------------------|
D---0-------------------------------------------------------|
A-12--------------------------------------------------------|
E-----------------------------------------------------------|
Tap to rate this tab
# A B C D E F G H I J K L M N O P Q R S T U V W X Y Z