Song name
# A B C D E F G H I J K L M N O P Q R S T U V W X Y Z

Brand New - Noro tab

-------------------------------------------------------------------------------
			     Noro - Brand New
-------------------------------------------------------------------------------

tabbed by: dea221

this is the intro to Noro, if anyone knows the rest or correct way to play the 
song then a new tab would be greatly appreciated

Intro
|-15-15-15-14------------------|
|--------------15-17-17-17-12--|
|------------------------------|
|------------------------------|
|------------------------------|
|------------------------------|x2


Main Verse
|-------------------------3------3------3------3------|
|-----5----5----5----5------0------0------0------0----|
|---4----4----4----4----5------5------5------5--------|
|-2----2----2----2------------------------------------|
|-----------------------------------------------------|
|-----------------------------------------------------|


Tap to rate this tab
# A B C D E F G H I J K L M N O P Q R S T U V W X Y Z