Song name
# A B C D E F G H I J K L M N O P Q R S T U V W X Y Z

Brand New - Sink tab

-------------------------------------------------------------------------------
			     Sink - Brand New
-------------------------------------------------------------------------------
Tabbed by: Webb
Email:Ryanw20@hotmail.com

Tuning: Drop D
 Simple way to play this song with one guitar

into/ verse 1
e|---------------------|----------------------|
B|---------------------|----------------------|
G|------------4p2------|---5-5-5-5-5-5-2-2-2--|
D|-2--2--2--2----------|---5-5-5-5-5-5-2-2-2--|
A|-2--2--2--2----------|---3-3-3-3-3-3-0-0-0--|
D|-2--2--2--2------x8--|----------------------|
p.m .  .  .  .
e|------------------------------------------------------|-----------------------|
B|---------------------------------3------------------5-|-----------------------|
G|------------2h4p2-------------2h4---------------2h4---|-5-5-5-5-5-5-2-2-2-----|
D|-2--2--2--2--------2--2--2--2-------2--2--2--2--------|-5-5-5-5-5-5-2-2-2-----|
A|-2--2--2--2--------2--2--2--2-------2--2--2--2--------|-3-3-3-3-3-3-0-0-0-x2--|
D|-2--2--2--2--------2--2--2--2-------2--2--2--2--------|-----------------------|
p.m.  .  .  .        .  .  .  .       .  .  .  .

chorus 1
e|-----------------------------------|
B|-----------------------------------|
G|----------------5-5-5-5-5-5-2-2-2--|
D|--2--2--2--5----5-5-5-5-5-5-2-2-2--|
A|--2--2--2--5----3-3-3-3-3-3-0-0-0--|
D|--2--2--2--5-x3--------------------|

verse 2
e|---------------------|----------------------|
B|---------------------|----------------------|
G|------------4p2------|---5-5-5-5-5-5-2-2-2--|
D|-2--2--2--2----------|---5-5-5-5-5-5-2-2-2--|
A|-2--2--2--2----------|---3-3-3-3-3-3-0-0-0--|
D|-2--2--2--2------x4--|----------------------|
p.m .  .  .  .


e|------------------------------------------------------|-----------------------|
B|---------------------------------3------------------5-|-----------------------|
G|------------2h4p2-------------2h4---------------2h4---|-5-5-5-5-5-5-2-2-2-----|
D|-2--2--2--2--------2--2--2--2-------2--2--2--2--------|-5-5-5-5-5-5-2-2-2-----|
A|-2--2--2--2--------2--2--2--2-------2--2--2--2--------|-3-3-3-3-3-3-0-0-0-x2--|
D|-2--2--2--2--------2--2--2--2-------2--2--2--2--------|-----------------------|
p.m.  .  .  .        .  .  .  .       .  .  .  .

chorus 2

e|---------------------------------------------------|
B|---------------------------------------------------|
G|---------------------------------------------------|
D|-2-2-2-5---2-2-2-7-5---2-2-2-5--5-5-5-5-5-5-2-2-2--|
A|-2-2-2-5---2-2-2-7-5---2-2-2-5--5-5-5-5-5-5-2-2-2--|
D|-2-2-2-5---2-2-2-7-5---2-2-2-5--3-3-3-3-3-3-0-0-0--|

cont.
e|----------------------------|-------------------------|
B|----------------------------|-------------------------|
G|----------------------------|-------------------------|
D|-2-2-2-5---2-2-2-5---2-2-2-5|--5-5-5-5-5-5-2-2-2------|
A|-2-2-2-5---2-2-2-5---2-2-2-5|--5-5-5-5-5-5-2-2-2------|
D|-2-2-2-5---2-2-2-5---2-2-2-5|--3-3-3-3-3-3-0-0-0--x3--|

Bridge
e|-------------------|    -----------------|-------------------------|-----|
B|-------------------|    -----------------|-------------------------|-----|
G|-------------------|    -----------------|------------------5555522|-----|
D|-2------5-----7----|    -2-----5-----7---|------2-2-22-5-5--5555522|-----|
A|-2------5-----7----|    -2-----5-----7---|------2-2-22-5-5--3333300|-----|
E|-2-x14--5-x4--7-x4-|x1  -2-x8--5-x4--7-x4| x3---2-2-22-5-5x3--------|x2--|
P.M.      .     .     .      .     .

chorus 2

e|---------------------------------------------------|
B|---------------------------------------------------|
G|---------------------------------------------------|
D|-2-2-2-5---2-2-2-7-5---2-2-2-5--5-5-5-5-5-5-2-2-2--|
A|-2-2-2-5---2-2-2-7-5---2-2-2-5--5-5-5-5-5-5-2-2-2--|
D|-2-2-2-5---2-2-2-7-5---2-2-2-5--3-3-3-3-3-3-0-0-0--|

cont.
e|----------------------------|--------------------------------------------------|
B|----------------------------|--------------------------------------------------|
G|----------------------------|--------------------------------------2-----------|
D|-2-2-2-5---2-2-2-5---2-2-2-5|--5-5-5-5-55-2-2-2------5-5-5-5-7-7-7-2-----------|
A|-2-2-2-5---2-2-2-5---2-2-2-5|--5-5-5-5-55-2-2-2------5-5-5-5-7-7-7-0-----------|
D|-2-2-2-5---2-2-2-5---2-2-2-5|--3-3-3-3-33-0-0-0--x2--3-3-3-3-5-5-5-------------|

| /  slide up
| \  slide down
| h  hammer-on
| p  pull-off
| ~  vibrato
| +  harmonic
| x  Mute note
===============================================================================
Tap to rate this tab
 
# A B C D E F G H I J K L M N O P Q R S T U V W X Y Z