Song name
# A B C D E F G H I J K L M N O P Q R S T U V W X Y Z

Brand New - I Will Play My Game Beneath The Spin Light tab

Tuning: 1/2 step down

INTRO x4
Eb|-----0-------------0--------------0--------0-------1--------------------|
Bb|-----1-------------0--------------1--------1-------0--------------------|
Gb|-----2-x12---------1-x12----------0-x12----2-x5----0-x5-----------------|
Db|-----2-------------0--------------2--------3-------0--------------------|
Ab|-----0-------------2--------------3--------3-------2--------------------|
Eb|-----x-------------0--------------0--------0-------3--------------------|

CHORUS
Eb|------------------------------------------------------------------------|
Bb|------------------------------------------------------------------------|
Gb|------5-----------------------------------------------------------------|
Db|------5-x16--------3-------------5-x16----------------------------------|
Ab|------3------------3-x16---------5--------------------------------------|
Eb|-------------------1-------------3--------------------------------------|

POST CHORUS
Eb|------------------------------------------------------------------------|
Bb|------x-x-1-1-------------1-1---------x-x-1-1---------x-x-1-1---1---1111|
Gb|------x-x-2-2-x-x-1-1-----2-2-x-x-1-1-x-x-2-2-x-x-1-1-x-x-2-2---0---0000|
Db|------x-x-2-2-x-x-2-2-x-x-2-2-x-x-2-2-x-x-2-2-x-x-2-2-x-x-2-2---2---2222|
Ab|--------------x-x-2-2---------x-x-2-2---------x-x-2-2-----------3---3333|
Eb|------------------------------------------------------------------------|

VERSE x4
Eb|-----0-------------0--------------0--------0-------1--------------------|
Bb|-----1-------------0--------------1--------1-------0--------------------|
Gb|-----2-x12---------1-x12----------0-x12----2-x5----0-x5-----------------|
Db|-----2-------------0--------------2--------3-------0--------------------|
Ab|-----0-------------2--------------3--------3-------2--------------------|
Eb|-----x-------------0--------------0--------0-------3--------------------|

CHORUS
Eb|------------------------------------------------------------------------|
Bb|------------------------------------------------------------------------|
Gb|------5-----------------------------------------------------------------|
Db|------5-x16--------3-x16---------5--------------------------------------|
Ab|------3------------3-------------5-x16----------------------------------|
Eb|-------------------1-------------3--------------------------------------|

POST CHORUS (DISTORTION) x2
Eb|------------------------------------------------------------------------|
Bb|------x-x-1-1---------x-x-1-1---------x-x-1-1---------x-x-1-1---1---1111|
Gb|------x-x-2-2-x-x-1-1-x-x-2-2-x-x-1-1-x-x-2-2-x-x-1-1-x-x-2-2---0---0000|
Db|------x-x-2-2-x-x-2-2-x-x-2-2-x-x-2-2-x-x-2-2-x-x-2-2-x-x-2-2---2---2222|
Ab|--------------x-x-2-2---------x-x-2-2---------x-x-2-2-----------3---3333|
Eb|------------------------------------------------------------------------|

GUITAR 2 (OPTIONAL)
Eb|-------0----0------0------0-0-------0-------0----0-0-----0------0----0--|
Bb|---------1-----1-3----3--------1-------1-3----3-------1----1-3----3-----|
Gb|------------------------------------------------------------------------|
Db|------------------------------------------------------------------------|
Ab|------------------------------------------------------------------------|
Eb|------------------------------------------------------------------------|

VERSE x4
Eb|-----0-------------0--------------0--------0-------1--------------------|
Bb|-----1-------------0--------------1--------1-------0--------------------|
Gb|-----2-x12---------1-x12----------0-x12----2-x5----0-x5-----------------|
Db|-----2-------------0--------------2--------3-------0--------------------|
Ab|-----0-------------2--------------3--------3-------2--------------------|
Eb|-----x-------------0--------------0--------0-------3--------------------|

POST CHORUS (DISTORTION)
Eb|------------------------------------------------------------------------|
Bb|------x-x-1-1---------x-x-1-1---------x-x-1-1---------x-x-1-1---1---1111|
Gb|------x-x-2-2-x-x-1-1-x-x-2-2-x-x-1-1-x-x-2-2-x-x-1-1-x-x-2-2---0---0000|
Db|------x-x-2-2-x-x-2-2-x-x-2-2-x-x-2-2-x-x-2-2-x-x-2-2-x-x-2-2---2---2222|
Ab|--------------x-x-2-2---------x-x-2-2---------x-x-2-2-----------3---3333|
Eb|------------------------------------------------------------------------|

VERSE
Eb|-----0-------------0--------------0--------0-------1--------------------|
BB|-----1-------------0--------------1--------1-------0--------------------|
Gb|-----2-x12---------1-x12----------0-x12----2-x5----0-x5-----------------|
Db|-----2-------------0--------------2--------3-------0--------------------|
Ab|-----0-------------2--------------3--------3-------2--------------------|
Eb|-----x-------------0--------------0--------0-------3--------------------|

BRIDGE
Eb|-----0-------------0--------------0----------------0-------0------------|
Bb|-----1-------------1--------------0----------------1-------0------------|
Gb|-----0-------------2--------------1----------------2-------1------------|
Db|-----2-x16---------2-x16----------2-x16----5-------2-x16---2-x16---5----|
Ab|-----3-------------0--------------2--------5-x16---0-------2-------5-x16|
Eb|-----0-------------x--------------0--------3-------x-------0-------3----|

POST CHORUS (DISTORTION)
Eb|------------------------------------------------------------------------|
Bb|------x-x-1-1---------x-x-1-1---------x-x-1-1---------x-x-1-1-----1-----|
Gb|------x-x-2-2-x-x-1-1-x-x-2-2-x-x-1-1-x-x-2-2-x-x-1-1-x-x-2-2-----0-----|
Db|------x-x-2-2-x-x-2-2-x-x-2-2-x-x-2-2-x-x-2-2-x-x-2-2-x-x-2-2-----2-----|
Ab|--------------x-x-2-2---------x-x-2-2---------x-x-2-2-------------3-----|
Eb|------------------------------------------------------------------------|

Listen to song for timing and stum pattern ig and enjoy
Tap to rate this tab
# A B C D E F G H I J K L M N O P Q R S T U V W X Y Z