Song name
# A B C D E F G H I J K L M N O P Q R S T U V W X Y Z

Brand New - Good To Know That If I Ever Need Attention All I Have To Do Is Die tab

-------------------------------------------------------------------------------
GOOD TO KNOW THAT IF I EVER NEED ATTENTION ALL I HAVE TO DO IS DIE - Brand New
-------------------------------------------------------------------------------
Tabbed by: Taylor Harris
Email: jtaylorharris@yahoo.com

Tuning: E-Flat (Eb Ab Db Gb Bb eb)

 /  slide up
 \  slide down
 h  hammer-on
 p  pull-off
 ~  vibrato


This song is rather dense with all the distortion. I've picked through it
all so listen extra close before you rate. If you do not find it accurate,
please shoot me an email because I am open to all kinds of suggestions.

**Note: I originally thought the verse was like this:

*eb|------0---------0---------0---------0--------------|*
*Bb|----------0---------0---------0---------0----------|*
*Gb|----5---5-----5---5-----5---5-----5---5------------|*
*Db|--7---------7---------6---------6------------------|*
*Ab|---------------------------------------------------|*
*Eb|---------------------------------------------------|*

*eb|------0---------0---------0---------0--------------|*
*Bb|----------0---------0---------0---------0----------|*
*Gb|----5---5-----5---5-----5---5-----5---5------------|*
*Db|--5---------5---------3---------2------------------|*
*Ab|---------------------------------------------------|*
*Eb|---------------------------------------------------|*

However, after seeing it live I saw Jesse plays it as is in the tab. They are
the same notes picked in the same order. It just depends on what you prefer.
I thought I would throw that in there because I find the above method sounds
better due to the open strings.


[Guitar 1]INTRO/VERSE
eb|--------------------------------------------------------------------------|
Bb|------------0------------0------------0------------0----------------------|
Gb|-------9------------9------------9------------9---------------------------|
Db|----10---10------10---10------10---10------10---10------------------------|
Ab|-12-----------12-----------11-----------11--------------------------------|
Eb|--------------------------------------------------------------------------|


eb|--------------------------------------------------------------------------|
Bb|------------0------------0-----------0-----------0------------------------|
Gb|-------9------------9-----------9-----------9-----------------------------|
Db|----10---10------10---10-----10---10-----10---10--------------------------|
Ab|-10-----------10-----------8-----------7----------------------------------|
Eb|------------------------------------------------------------------[x6]----|

[Guitar 2]
INTRO LEAD
eb|--------------------------------------------------------------------------|
Bb|----------------12-10-------8~--------------------------------------------|
Gb|--9-----9---------------7h9----5h7------------[x2]------------------------|
Db|----9~----9\7----------------------5~-------------------------------------|
Ab|--------------------------------------------------------------------------|
Eb|--------------------------------------------------------------------------|

VERSE LEAD
eb|--7-------8----------15---------13-----12---------------------------------|
Bb|--8-------8----------13---------13-----13------------[x4]-----------------|
Gb|--9-------9----------12---------12-----12---------------------------------|
Db|--------------------------------------------------------------------------|
Ab|--------------------------------------------------------------------------|
Eb|--------------------------------------------------------------------------|
     "Am I...to defend..it's ink...lies...page the paper"

CHORUS
(Both Guitars) Pickslide into and out of.
eb|--------------------------------------------------------------------------|
Bb|--------------------------------------------------------------------------|
Gb|--5-5-5-5-5-5-5-5-5-5-5-5-5-5-5-5-2-2-2-2-2-2-2-2-------------------------|
Db|--5-5-5-5-5-5-5-5-5-5-5-5-5-5-5-5-2-2-2-2-2-2-2-2-5-5-5-5-5-5-5-5---------|
Ab|--3-3-3-3-3-3-3-3-2-2-2-2-2-2-2-2-0-0-0-0-0-0-0-0-5-5-5-5-5-5-5-5---------|
Eb|--------------------------------------------------3-3-3-3-3-3-3-3---------|

eb|--------------------------------------------------------------------------|
Bb|--------------------------------------------------------------------------|
Gb|--------------------------------------------------------------------------|
Db|--3-3-3-3-3-3-3-3-2-2-2-2-2-2-2-2-5-5-5-5-5-5-5-5-3-3-3-3-3-3-3-3---------|
Ab|--3-3-3-3-3-3-3-3-2-2-2-2-2-2-2-2-5-5-5-5-5-5-5-5-3-3-3-3-3-3-3-3---------|
Eb|--1-1-1-1-1-1-1-1-0-0-0-0-0-0-0-0-3-3-3-3-3-3-3-3-1-1-1-1-1-1-1-1---[x2]--|


2ND VERSE
[Guitar 1]
eb|--------------------------------------------------------------------------|
Bb|------------0------------0------------0------------0----------------------|
Gb|-------9------------9------------9------------9---------------------------|
Db|----10---10------10---10------10---10------10---10------------------------|
Ab|-12-----------12-----------11-----------11--------------------------------|
Eb|--------------------------------------------------------------------------|


eb|--------------------------------------------------------------------------|
Bb|------------0------------0-----------0-----------0------------------------|
Gb|-------9------------9-----------9-----------9-----------------------------|
Db|----10---10------10---10-----10---10-----10---10--------------------------|
Ab|-10-----------10-----------8-----------7----------------------------------|
Eb|------------------------------------------------------------------[x4]----|


[Guitar 2]
eb|--7-----------8-------------15-----------13-----12------------------------|
Bb|--8-----------8-------------13-----------13-----13-----------[x4]---------|
Gb|--9-----------9-------------12-----------12-----12------------------------|
Db|--------------------------------------------------------------------------|
Ab|--------------------------------------------------------------------------|
Eb|--------------------------------------------------------------------------|
     "Once said...I will hold...I'll speak...mind...feel slighted"

[Guitar 3] For the last bar before the chorus a 3rd guitar is
           overdubbed playing the lead from the intro
eb|--------------------------------------------------------------------------|
Bb|----------------12-10-------8~--------------------------------------------|
Gb|--9-----9---------------7h9----5h7----------------------------------------|
Db|----9~----9\7----------------------5~-------------------------------------|
Ab|--------------------------------------------------------------------------|
Eb|--------------------------------------------------------------------------|

CHORUS
Note: The second time around there is an added guitar part. It's difficult
      to hear as the song is quite dense. If you mess around with the
      EQ and take down most of the bass channels you can hear it better.
[Guitar 1]
eb|--------------------------------------------------------------------------|
Bb|--------------------------------------------------------------------------|
Gb|--5-5-5-5-5-5-5-5-5-5-5-5-5-5-5-5-2-2-2-2-2-2-2-2-------------------------|
Db|--5-5-5-5-5-5-5-5-5-5-5-5-5-5-5-5-2-2-2-2-2-2-2-2-5-5-5-5-5-5-5-5---------|
Ab|--3-3-3-3-3-3-3-3-2-2-2-2-2-2-2-2-0-0-0-0-0-0-0-0-5-5-5-5-5-5-5-5---------|
Eb|--------------------------------------------------3-3-3-3-3-3-3-3---------|

eb|--------------------------------------------------------------------------|
Bb|--------------------------------------------------------------------------|
Gb|--------------------------------------------------------------------------|
Db|--3-3-3-3-3-3-3-3-2-2-2-2-2-2-2-2-5-5-5-5-5-5-5-5-3-3-3-3-3-3-3-3---------|
Ab|--3-3-3-3-3-3-3-3-2-2-2-2-2-2-2-2-5-5-5-5-5-5-5-5-3-3-3-3-3-3-3-3---------|
Eb|--1-1-1-1-1-1-1-1-0-0-0-0-0-0-0-0-3-3-3-3-3-3-3-3-1-1-1-1-1-1-1-1---[x2]--|


[Guitar 2] difficult to hear, but it's there
eb|--8---8---8---8---10----10----10----10------------------------------------|
Bb|----8---8---8---8----12----12----12----12---------------------------------|
Gb|--------------------------------------------------------------------------|
Db|--------------------------------------------------------------------------|
Ab|--------------------------------------------------------------------------|
Eb|--------------------------------------------------------------------------|

eb|--12----12----12----12----10----10----10----10----------------------------|
Bb|-----13----13----13----13----12----12----12----12-------------------------|
Gb|--------------------------------------------------------------------------|
Db|--------------------------------------------------------------------------|
Ab|--------------------------------------------------------------------------|
Eb|--------------------------------------------------------------------------|

eb|-15-13-12----12----12----12----12----15-13-12-----10----10----10----10----|
Bb|----------13----13----13----13----13----------13-----12----12----12----12-|
Gb|--------------------------------------------------------------------------|
Db|--------------------------------------------------------------------------|
Ab|--------------------------------------------------------------------------|
Eb|----------------------------------------------------------------[x2]------|


BRIDGE PART 1
[Guitar 1] The open notes are optional
eb|-(0)--(0)--(0)(0)(0)(0)--(0)--(0)--(0)(0)(0)(0)---------------------------|
Bb|-(0)--(0)--(0)(0)(0)(0)--(0)--(0)--(0)(0)(0)(0)---------------------------|
Gb|--9----9----9--9--9--9----9----9----9--9--9--9----------------------------|
Db|--10---10---10-10-10-10---10---10---10-10-10-10---------------------------|
Ab|--12---12---12-12-12-12---12---12---12-12-12-12---------------------------|
Eb|--------------------------------------------------------------------------|

eb|-(0)--(0)--(0)(0)(0)(0)--(0)--(0)--(0)(0)(0)(0)---------------------------|
Bb|-(0)--(0)--(0)(0)(0)(0)--(0)--(0)--(0)(0)(0)(0)---------------------------|
Gb|--9----9----9--9--9--9----9----9----9--9--9--9----------------------------|
Db|--10---10---10-10-10-10---10---10---10-10-10-10---------------------------|
Ab|--11---11---11-11-11-11---11---11---11-11-11-11---------------------------|
Eb|--------------------------------------------------------------------------|

eb|-(0)--(0)--(0)(0)(0)(0)--(0)--(0)--(0)(0)(0)(0)---------------------------|
Bb|-(0)--(0)--(0)(0)(0)(0)--(0)--(0)--(0)(0)(0)(0)---------------------------|
Gb|--9----9----9--9--9--9----9----9----9--9--9--9----------------------------|
Db|--10---10---10-10-10-10---10---10---10-10-10-10---------------------------|
Ab|--10---10---10-10-10-10---10---10---10-10-10-10---------------------------|
Eb|--------------------------------------------------------------------------|

eb|-(0)--(0)--(0)(0)(0)(0)--(0)--(0)--(0)(0)(0)(0)---------------------------|
Bb|-(0)--(0)--(0)(0)(0)(0)--(0)--(0)--(0)(0)(0)(0)---------------------------|
Gb|--9----9----9--9--9--9----9----9----9--9--9--9----------------------------|
Db|--10---10---10-10-10-10---10---10---10-10-10-10---------------------------|
Ab|--8----8----8--8--8--8----7----7----7--7--7--7----------------------------|
Eb|----------------------------------------------------------------[x4]------|

[Guitar 2]
eb|--15-12----------15-12-----------15-12------------------------------------|
Bb|--------13p12----------13p12-----------13---------------------------------|
Gb|--------------------------------------------------------------------------|
Db|--------------------------------------------------------------------------|
Ab|--------------------------------------------------------------------------|
Eb|--------------------------------------------------------------------------|

eb|--12------------12-----------12-------------------------------------------|
Bb|-----13-12---------13-12--------13-12-------------------------------------|
Gb|-----------12------------12-----------------------------------------------|
Db|--------------------------------------------------------------------------|
Ab|--------------------------------------------------------------------------|
Eb|-----------------------------------------------------------------[x4]-----|

BRIDGE PART 2
So for the next part Guitar 1 is pretty much effect-pedaled into oblivion.
Jesse however is strumming this, which is basically the main riff for the
majority of the song. Just layer on plenty of phase shift, and distortion.

[Guitar 1]
eb|--0--0--0--0--0--0--0--0--0--0--0--0--0--0--0--0--0--0--0--0--------------|
Bb|--0--0--0--0--0--0--0--0--0--0--0--0--0--0--0--0--0--0--0--0--------------|
Gb|--9--9--9--9--9--9--9--9--9--9--9--9--9--9--9--9--9--9--9--9--------------|
Db|--10-10-10-10-10-10-10-10-10-10-10-10-10-10-10-10-10-10-10-10-------------|
Ab|--12-12-12-12-11-11-11-11-10-10-10-10-8--8--8--8--7--7--7--7--------------|
Eb|--------------------------------------------------------------------------|

[Guitar 2]
eb|--12-------12-------12-------12-------12----------------------------------|
Bb|-----13-------13-------13-------13-------13-------------------------------|
Gb|--------14-------14-------14-------14-------14----------------------------|
Db|--------------------------------------------------------------------------|
Ab|--------------------------------------------------------------------------|
Eb|--------------------------------------------------------------------------|

eb|--10-------10-------10-------10-------10----------------------------------|
Bb|-----12-------12-------12-------12-------12-------------------------------|
Gb|--------13-------13-------13-------13-------13----------------------------|
Db|--------------------------------------------------------------------------|
Ab|--------------------------------------------------------------------------|
Eb|--------------------------------------------------------------------------|

eb|-8-----8-----8-----8-----8---------------------------------|--------------|
Bb|---8-----8-----8-----8-----8------------------------9----9-|10//\\17//\\12|
Gb|-----9-----9-----9-----9-----9--------9-10-----9-10---10---|--------------|
Db|--------------------------------10-10-------10-------------|--------------|
Ab|-----------------------------------------------------[x2]--|--------------|
Eb|-----------------------------------------------------------|--------------|


CHORUS
[Guitar 1]
eb|--------------------------------------------------------------------------|
Bb|--------------------------------------------------------------------------|
Gb|--5-5-5-5-5-5-5-5-5-5-5-5-5-5-5-5-2-2-2-2-2-2-2-2-------------------------|
Db|--5-5-5-5-5-5-5-5-5-5-5-5-5-5-5-5-2-2-2-2-2-2-2-2-5-5-5-5-5-5-5-5---------|
Ab|--3-3-3-3-3-3-3-3-2-2-2-2-2-2-2-2-0-0-0-0-0-0-0-0-5-5-5-5-5-5-5-5---------|
Eb|--------------------------------------------------3-3-3-3-3-3-3-3---------|

eb|--------------------------------------------------------------------------|
Bb|--------------------------------------------------------------------------|
Gb|--------------------------------------------------------------------------|
Db|--3-3-3-3-3-3-3-3-2-2-2-2-2-2-2-2-5-5-5-5-5-5-5-5-3-3-3-3-3-3-3-3---------|
Ab|--3-3-3-3-3-3-3-3-2-2-2-2-2-2-2-2-5-5-5-5-5-5-5-5-3-3-3-3-3-3-3-3---------|
Eb|--1-1-1-1-1-1-1-1-0-0-0-0-0-0-0-0-3-3-3-3-3-3-3-3-1-1-1-1-1-1-1-1---[x4]--|


[Guitar 2] It's still there
eb|--8---8---8---8---10----10----10----10------------------------------------|
Bb|----8---8---8---8----12----12----12----12---------------------------------|
Gb|--------------------------------------------------------------------------|
Db|--------------------------------------------------------------------------|
Ab|--------------------------------------------------------------------------|
Eb|--------------------------------------------------------------------------|

eb|--12----12----12----12----10----10----10----10----------------------------|
Bb|-----13----13----13----13----12----12----12----12-------------------------|
Gb|--------------------------------------------------------------------------|
Db|--------------------------------------------------------------------------|
Ab|--------------------------------------------------------------------------|
Eb|--------------------------------------------------------------------------|

eb|-15-13-12----12----12----12----12----15-13-12-----10----10----10----10----|
Bb|----------13----13----13----13----13----------13-----12----12----12----12-|
Gb|--------------------------------------------------------------------------|
Db|--------------------------------------------------------------------------|
Ab|--------------------------------------------------------------------------|
Eb|----------------------------------------------------------------[x4]------|


OUTRO PART 1
[Guitar 1]
eb|-(0)--(0)--(0)(0)(0)(0)--(0)--(0)--(0)(0)(0)(0)---------------------------|
Bb|-(0)--(0)--(0)(0)(0)(0)--(0)--(0)--(0)(0)(0)(0)---------------------------|
Gb|--9----9----9--9--9--9----9----9----9--9--9--9----------------------------|
Db|--10---10---10-10-10-10---10---10---10-10-10-10---------------------------|
Ab|--12---12---12-12-12-12---12---12---12-12-12-12---------------------------|
Eb|--------------------------------------------------------------------------|

eb|-(0)--(0)--(0)(0)(0)(0)--(0)--(0)--(0)(0)(0)(0)---------------------------|
Bb|-(0)--(0)--(0)(0)(0)(0)--(0)--(0)--(0)(0)(0)(0)---------------------------|
Gb|--9----9----9--9--9--9----9----9----9--9--9--9----------------------------|
Db|--10---10---10-10-10-10---10---10---10-10-10-10---------------------------|
Ab|--11---11---11-11-11-11---11---11---11-11-11-11---------------------------|
Eb|--------------------------------------------------------------------------|

eb|-(0)--(0)--(0)(0)(0)(0)--(0)--(0)--(0)(0)(0)(0)---------------------------|
Bb|-(0)--(0)--(0)(0)(0)(0)--(0)--(0)--(0)(0)(0)(0)---------------------------|
Gb|--9----9----9--9--9--9----9----9----9--9--9--9----------------------------|
Db|--10---10---10-10-10-10---10---10---10-10-10-10---------------------------|
Ab|--10---10---10-10-10-10---10---10---10-10-10-10---------------------------|
Eb|--------------------------------------------------------------------------|

eb|-(0)--(0)--(0)(0)(0)(0)--(0)--(0)--(0)(0)(0)(0)---------------------------|
Bb|-(0)--(0)--(0)(0)(0)(0)--(0)--(0)--(0)(0)(0)(0)---------------------------|
Gb|--9----9----9--9--9--9----9----9----9--9--9--9----------------------------|
Db|--10---10---10-10-10-10---10---10---10-10-10-10---------------------------|
Ab|--8----8----8--8--8--8----7----7----7--7--7--7----------------------------|
Eb|----------------------------------------------------------------[x4]------|

[Guitar 2]
eb|--15-12----------15-12-----------15-12------------------------------------|
Bb|--------13p12----------13p12-----------13---------------------------------|
Gb|--------------------------------------------------------------------------|
Db|--------------------------------------------------------------------------|
Ab|--------------------------------------------------------------------------|
Eb|--------------------------------------------------------------------------|

eb|--12------------12-----------12-------------------------------------------|
Bb|-----13-12---------13-12--------13-12-------------------------------------|
Gb|-----------12------------12-----------------------------------------------|
Db|--------------------------------------------------------------------------|
Ab|--------------------------------------------------------------------------|
Eb|-----------------------------------------------------------------[x4]-----|


OUTRO PART 2
[Guitar 1]
eb|--0--0--0--0--0--0--0--0--0--0--0--0--0--0--0--0--0--0--0--0--------------|
Bb|--0--0--0--0--0--0--0--0--0--0--0--0--0--0--0--0--0--0--0--0--------------|
Gb|--9--9--9--9--9--9--9--9--9--9--9--9--9--9--9--9--9--9--9--9--------------|
Db|--10-10-10-10-10-10-10-10-10-10-10-10-10-10-10-10-10-10-10-10-------------|
Ab|--12-12-12-12-11-11-11-11-10-10-10-10-8--8--8--8--7--7--7--7--------------|
Eb|--------------------------------------------------------------------------|

[Guitar 2]
eb|--12-------12-------12-------12-------12----------------------------------|
Bb|-----13-------13-------13-------13-------13-------------------------------|
Gb|--------14-------14-------14-------14-------14----------------------------|
Db|--------------------------------------------------------------------------|
Ab|--------------------------------------------------------------------------|
Eb|--------------------------------------------------------------------------|

eb|--10-------10-------10-------10-------10----------------------------------|
Bb|-----12-------12-------12-------12-------12-------------------------------|
Gb|--------13-------13-------13-------13-------13----------------------------|
Db|--------------------------------------------------------------------------|
Ab|--------------------------------------------------------------------------|
Eb|--------------------------------------------------------------------------|

eb|--8-----8-----8-----8-----8-----------------------------------------------|
Bb|----8-----8-----8-----8-----8------------------------9----9---------------|
Gb|------9-----9-----9-----9-----9--------9-10-----9-10---10-----------------|
Db|---------------------------------10-10-------10---------------------------|
Ab|--------------------------------------------------------------------------|
Eb|--------------------------------------------------------------------------|

Play for several bars and fade out.

===============================================================================
Tap to rate this tab
 
# A B C D E F G H I J K L M N O P Q R S T U V W X Y Z