Song name
# A B C D E F G H I J K L M N O P Q R S T U V W X Y Z

Brand New - Last Chance To Lose Your Keys tab

-------------------------------------------------------------------------------
			     Last Chance To Lose Your Keys - Brand New
                                    Album: Your Favourite Weapon
-------------------------------------------------------------------------------

Tabbed by: ManBearPig41
Tuning: Drop D

----------------------------Lead Guitar------------------------------------------

 Intro
e|---3~-----------|--3~-----------|-3h4-6-4-3------|-3h4-3-----------|
B|------4~--------|-----4~--------|------------6-6-|-----------4-----|
G|---------5-3-3--|--------5-3-3--|----------------|--------3--------|
D|----------------|---------------|----------------|-----------------|
A|----------------|----------------|---------------|-----------------|
E|-----------------|---------------|----------------|----------------|


Versex2
e|------------|-------------|-------------------|------------------|
B|------------|-------------|-------------------|------------------|
G|------------|-------------|-------------------|------------------|
D|-----8--8---|-----8---8---|--------8-----8----|-----8--8---------|
A|-666--66-6--|-555--55--5--|------------------|-------------------|
E|-------------|-------------|-101010--1010--10-|-888--88--8-------|
PM|. . .     . .    .      . . .     . .    .         .   .  .       .   .       .       .. .    . .     .
                                             These Are Tens   ^
[Note: Instead of the palm muted notes you could just mute the strings, The palm muted 
are covered by the Rhythm guitar.]

e|-----------------------------|--------------------------------------------------|
B|-----------------------------|--------------------------------------------------|
G|-------7-----10-----7---7h8-|-------7----- 10-----7---7h8-----------------------|
D|-x-x-x-8-x-x-10-x-x-8-x-8---|-x-x-x-8-x-x-10-x-x-8-x-8--------------------------|
A|-----------------------------|--------------------------------------------------|
E|-----------------------------|--------------------------------------------------|

                                                  More Tens^

Pre-Chorus
e|------------------------------4-3-----------------------------------------------|
B|---4-6-4------4-6-4------4-6--------4-6-4------4-6-4------4-6-4-----------------|
G|-3-------3--3-------3--3----------3-------3--3-------3--3-----------------------|
D|--------------------------------------------------------------------------------|
A|--------------------------------------------------------------------------------|
E|--------------------------------------------------------------------------------|

Chorus
e|------------------------------|
B|------------------------------|
G|--------3-3--------5-5-3-3----|Repeat As Needed
D|--1-1---3-3---1-1--5-5-3-3----|
A|--1-1---1-1---1-1--3-3-1-1----|
E|--1-1---------1-1-------------|

Pre-Verse
e|-----------------------------4-3--------------|
B|---4-6-4------4-6-4-----4-6------6-4-44-------|
G|-3-------3--3-------3-3-----------------------|
D|----------------------------------------------|
A|----------------------------------------------|
E|----------------------------------------------|

Verse
Prechorus
Chorus

Pre-Bridge
e|----------------------------4-3-----------|     |--------|
B|---4-6-4-----4-6-4-----4-6------6-4-4-----|    |-4~------|End
G|-3-------3-3-------3-3--------------------|    |---------|On
D|------------------------------------x2----|    |---------|
A|-------------------------------------------|    |--------|
E|--------------------------------------------|    |-------|

Bridge
e|---------------------------------------4-3-------------------------------------|
B|---4-6-4-----4-6-4-----4-6-4-----4-6------6-4----------------------------------|
G|-3-------3-3-------3-3-------3-3-----------------------------------------------|
D|-------------------------------------------------------------------------------|
A|-------------------------------------------------------------------------------|
E|-------------------------------------------------------------------------------|

Chorus (Repeat)

End On
e|------------------------------------------------------------------------------|
B|------------------------------------------------------------------------------|
G|------------------------------------------------------------------------------|
D|-1----------------------------------------------------------------------------|
A|-1----------------------------------------------------------------------------|
E|-1----------------------------------------------------------------------------|

-------------------------------Rhythm Guitar------------------------------------


Intro
e|-----------------------------------------------------------------------------------|
B|-----------------------------------------------------------------------------------|
G|-----3------5--3-------------------------------------------------------------------|
D|--1--3--1---5--3-------x2----------------------------------------------------------|
A|--1--1--1---3--1-------------------------------------------------------------------|
E|--1-----1--------------------------------------------------------------------------|

Verse (Palm Muted) x4
e|---------------------------------------------------------------------------------|
B|---------------------------------------------------------------------------------|
G|--8--8--5--3---------------------------------------------------------------------|
D|--8--8--5--3---------------------------------------------------------------------|
A|--6--5--3--1---------------------------------------------------------------------|
E|---------------------------------------------------------------------------------|

Pre Chorus
e|---------------------------------------------------------------------------------|
B|---------------------------------------------------------------------------------|
G|---------------------------------------------------------------------------------|
D|---6--8--6--8--------------------------------------------------------------------|
A|---6--8--6--8--------------------------------------------------------------------|
E|---6--8--6--8--------------------------------------------------------------------|

Chorus
e|---------------------------------------------------------------------------------|
B|---------------------------------------------------------------------------------|
G|--------3-3-------5-5-3-3--------------------------------------------------------|
D|---1-1--3-3--1-1--5-5-3-3--------------------------------------------------------|
A|---1-1--1-1--1-1--3-3-1-1--------------------------------------------------------|
E|---1-1--------1-1----------------------------------------------------------------|

Pre-Verse PM
e|-------------------------------------------------------------------------------|
B|-------------------------------------------------------------------------------|
G|-------------------------------------------------------------------------------|
D|----6---8----------------------------------------------------------------------|
A|----6---8----------------------------------------------------------------------|
E|----6---8----------------------------------------------------------------------|

Verse
Pre Chorus
Chorus

Pre Bridge PM
e|----------------|--(Not PM)----|
B|----------------|--end on------|
G|----------------|--------------|
D|-----6-8-6-8---|------13~------|
A|-----6-8-6-8----|-----13~------|
E|-----6-8-6-8----|-----13~------|
                                Thirteen^

Bridge
e|--------------------------------------------|----To Chorus----------------------|
B|--------------------------------------------|-----------------------------------|
G|---No Rhythm-Guitar Except For Ending of Bridge--|------------------------------|
D|--------------------------------------------|-------13\-------------------------|
A|--------------------------------------------|-------13\-------------------------|
E|---------------------------------------------|------13\-------------------------|
                                                                                       Thirteen^
Chorus

End On
e|You Can Use Either One.--------------------------------------------------------------|
B|The Second One Is Just---------------------------------------------------------------|
G|--An Octave Higher.------------------------------------------------------------------|
D|-----1~----------13~-----------------------------------------------------------------|
A|-----1~---or-----13~-----------------------------------------------------------------|
E|-----1~----------13~-----------------------------------------------------------------|
                       Thirteen^

| /  slide up
| \  slide down
| h  hammer-on
| p  pull-off
| ~  vibrato
| +  harmonic
| x  Mute note
===============================================================================
Tap to rate this tab
# A B C D E F G H I J K L M N O P Q R S T U V W X Y Z