Guitaretab - guitar tabs
Song name
# A B C D E F G H I J K L M N O P Q R S T U V W X Y Z

Brave Saint Saturn - Underground tab

-------------------------------------------------------------------------------
			     UNDERGROUND - Brave Saint Saturn
-------------------------------------------------------------------------------
Tabbed by: fiveironbrad

Album: Anti-Meridian

This is my favorite song off their newest album.  It's got a pretty sporadic strum 
so make sure to listen along to get it right.  Also, the chorus especially can be played in 
different positions; I simply tabbed out what I found was easiest to play!

INTRO:

e|--x--x--x--x----x--x----x--x--x--x----x--x---------------------------------|
B|--x--x--x--x----x--x----x--x--x--x----x--x---------------------------------|
G|--x--x--x--x----7--7----9--9--9--9----x--x---------------------------------|
D|--5--5--5--5----7--7----9--9--9--9----9--9---------------------------------|
A|--5--5--5--5----5--5----7--7--7--7----9--9---------------------------------|
E|--3--3--3--3----x--x----x--x--x--x----7--7---------------------------------|

VERSE:

e|--x--x--x--x----x--x----x--x--x--x----x--x---------------------------------|
B|--x--x--x--x----x--x----x--x--x--x----x--x---------------------------------|
G|--x--x--x--x----4--4----x--x--x--x----5--5---------------------------------|
D|--5--5--5--5----4--4----2--2--2--2----5--5---------------------------------|
A|--5--5--5--5----2--2----2--2--2--2----3--3---------------------------------|
E|--3--3--3--3----x--x----0--0--0--0----x--x---------------------------------|

PRECHORUS:

e|--x--x--x---x--x---x---x---x---x--x---x--x--x---x--x---x---x---x---x--x----|
B|--x--x--x---x--x---x---x---x---x--x---x--x--x---x--x---x---x---x---x--x----|
G|--7--7--7---7--7---7---7---7---7--7---5--5--5---5--5---5---5---5---5--5----|
D|--7--7--7---7--7---7---7---7---7--7---5--5--5---5--5---5---5---5---5--5----|
A|--5--5--5---5--5---5---5---5---5--5---3--3--3---3--3---3---3---3---3--3----|
E|--x--x--x---x--x---x---x---x---x--x---x--x--x---x--x---x---x---x---x--x----|

e|--x--x--x---x--x---x---x---x---x--x---x--x--x---x--x---x---x---x---x--x----|
B|--x--x--x---x--x---x---x---x---x--x---x--x--x---x--x---x---x---x---x--x----|
G|--9--9--9---9--9---9---9---9---9--9---x--x--x---x--x---x---x---x---x--x----|
D|--9--9--9---9--9---9---9---9---9--9---7--7--7---7--7---10--10--10--10-10---|
A|--7--7--7---7--7---7---7---7---7--7---7--7--7---7--7---10--10--10--10-10---|
E|--x--x--x---x--x---x---x---x---x--x---5--5--5---5--5---8---8---8---8--8----|

CHORUS:
[ Tab from: http://www.guitaretab.com/b/brave-saint-saturn/172896.html ]
e|--x--x--x----x--x--x----x--x--x----x--x--x--x------------------------------|
B|--x--x--x----x--x--x----x--x--x----x--x--x--x------------------------------|
G|--x--x--x----12-12-12---7--7--7----11-11-11-11-----------------------------|
D|--9--9--9----x--x--x----x--x--x----x--x--x--x------------------------------|
A|--x--x--x----10-10-10---5--5--5----9--9--9--9------------------------------|
E|--7--7--7----x--x--x----x--x--x----x--x--x--x------------------------------|

e|--x--x--x----x--x--x----x--x--x----x--x--x--x------------------------------|
B|--x--x--x----x--x--x----x--x--x----x--x--x--x------------------------------|
G|--x--x--x----12-12-12---7--7--7----6--6--6--6------------------------------|
D|--9--9--9----x--x--x----x--x--x----x--x--x--x------------------------------|
A|--x--x--x----10-10-10---5--5--5----4--4--4--4------------------------------|
E|--7--7--7----x--x--x----x--x--x----x--x--x--x------------------------------|

e|--x--x--x----x--x--x----x--x--x----x--x--x--x------------------------------|
B|--x--x--x----x--x--x----x--x--x----x--x--x--x------------------------------|
G|--5--5--5----4--4--4----11-11-11---x--x--x--x------------------------------|
D|--x--x--x----x--x--x----x--x--x----7--7--7--7------------------------------|
A|--3--3--3----2--2--2----9--9--9----x--x--x--x------------------------------|
E|--x--x--x----x--x--x----x--x--x----5--5--5--5------------------------------|

e|--x--x--x----x--x--x----x--x--x----x--x--x--x------------------------------|
B|--x--x--x----x--x--x----x--x--x----x--x--x--x------------------------------|
G|--x--x--x----12-12-12---7--7--7----11-11-11-11-----------------------------|
D|--9--9--9----x--x--x----x--x--x----x--x--x--x------------------------------|
A|--x--x--x----10-10-10---5--5--5----9--9--9--9------------------------------|
E|--7--7--7----x--x--x----x--x--x----x--x--x--x------------------------------|

BRIDGE:

e|--x--x--x--x----x--x----x--x--x--x----x--x---------------------------------|
B|--x--x--x--x----x--x----x--x--x--x----x--x---------------------------------|
G|--x--x--x--x----7--7----x--x--x--x----4--4---------------------------------|
D|--5--5--5--5----7--7----2--2--2--2----4--4---------------------------------|
A|--5--5--5--5----5--5----2--2--2--2----2--2---------------------------------|
E|--3--3--3--3----x--x----0--0--0--0----x--x---------------------------------|


| x  Mute note
===============================================================================
Related for Underground tab
Advertisement will be closed in 10 seconds