Song name
# A B C D E F G H I J K L M N O P Q R S T U V W X Y Z

Breakdown Of Sanity - Perception tab

This is my first tab so it might not be correct or whatever.
There are some vibrato a
nd such that I didn't mark in the tab but just listen to the song and you will hear when 
it is.

Tuning: E-standard
Amp: Clean tone with some delay and a bit phazer seemed to be pretty close.

e--------------------------------------------------------------------------------------|
B--------------------------------------------------------------------------------------|
G-------------4-4\5-----4------------------------------4-5-----7-7------4-4------------|
D-----7---------------------5-5-----------7----------7---------------------------------|
A--------------------------------------------------7-----------------------------------|
E--------------------------------------------------------------------------------------|

e--------------------------------------------------------------------------------------|
B--------------------------------------------------------------------------------------|
G-------------4-4\5-4-5-------7------------------------------5\9----7-7----------------|
D-----7-------------------------9-------5-5--------7-------7---------------10h12p10p9--|
A--------------------------------------------------------7-----------------------------|
E--------------------------------------------------------------------------------------|
                                                          v - Use your ringfinger
                                                     to slide from the 5th fret G
e--------------------------------------------------------------------------------------|
B-------------------------------------------------------------6\8----------------------|
G-----5-4----------4-5-----5\9-7--------------5-4---------5\9----------7-7------5-4----|
D---------7------7------------------9-9-----------7-----7------------------------------|
A--------------7-----------------------------------------------------------------------|
E--------------------------------------------------------------------------------------|

e--------------------------------------------------------------------------------------|
B--------------------------------------------------------------------------------------|
G--------------------------------------------------------------------------------------|
D-------7------------------7\9---------------------------------------------------------|
A-----7--------------------------12----------------------------------------------------|
E--------------------------------------------------------------------------------------|
Tap to rate this tab
# A B C D E F G H I J K L M N O P Q R S T U V W X Y Z