Song name
# A B C D E F G H I J K L M N O P Q R S T U V W X Y Z

Breakdown Of Sanity - Blind tab

-------------------------------------------------------------------------------
                             Blind - Breakdown of Sanity
-------------------------------------------------------------------------------
Tabbed by: directshot999
E-mail: directshot999@hotmail.com

Tuning: Drop A


************************************

| /   slide up
| \   slide down
| h   hammer-on
| p   pull-off
| ah  artificial harmonic
| *   palm mute
| b   bend

************************************

********PAY CLOSE ATTENTION to the asterisks in the breakdown sections and a few other places. 
They mark the less obvious palm mutes and tell you which notes to not mute! 
I have also placed lyrics here and there, just so you know where you are at :P********

To my knowledge, this tab is 100% correct. 
If you find a problem with it, or have any questions, feel free to email me!

B |---------------------------------------------------------------------------|
F#|---------------------------------------------------------------------------|
D |---------------------------------------------------------------------------|
A |-12\--------7-----7----------7-----7---------------------------------------|
E |-12\--0--0-----0-------0--0-----0-------0h5h8p7----------------------------|
A |-12\-----------------------------------------------------------------------|
"TO---DAY!!!!!!"

B |---------------------------------------------------------------------------|
F#|---------------------------------------------------------------------------|
D |---------------------------------------------------------------------------|
A |--------7-----7----------7-----7-------------------------------------------|
E |--0--0-----0-------0--0-----0----------------------------------------------|
A |------------------------------------0h7h10p9-------------------------------|

B |---------------------------------------------------------------------------|
F#|---------------------------------------------------------------------------|
D |---------------------------------------------------------------------------|
A |--------7-----7----------7-----7-------------------------------------------|
E |--0--0-----0-------0--0-----0-------0h5h8p7--------------------------------|
A |---------------------------------------------------------------------------|
 
B |---------------------------------------------------------------------------|
F#|---------------------------------------------------------------------------|
D |---------------------------------------------------------------------------|
A |--10-----9-----5-----7-----10-----9-----12-----12h14-----------------------|
E |------0-----0-----0-----0------0-----0------0------------------------------|
A |---------------------------------------------------------------------------|
^^Repeat above 2x, on 3rd time use below ending instead:

B |---------------------------------------------------------------------------|
F#|---------------------------------------------------------------------------|
D |---------------------------------------------------------------------------|
A |--10-----9-----5-----7--5--5--5--5--5--5--5--5-----------------------------|
E |------0-----0-----0-----5--5--5--5--5--5--5--5-----------------------------|
A |------------------------5--5--5--5--5--5--5--5-----------------------------|

B |---------------------------------------------------------------------------|
F#|---------------------------------------------------------------------------|
D |--14-14-14-14-14-14-10-10-10-10-10-10-9-9-9-9------------------------------|
A |---------------------------------------------------------------------------|
E |---------------------------------------------------------------------------|
A |---------------------------------------------------------------------------|
"It shines so!..."

B |---------------------------------------------------------------------------|
F#|---------------------------------------------------------------------------|
D |--12-12-12-12-12-12-10-10-10-10-10-10-9-9-9-9------------------------------|
A |---------------------------------------------------------------------------|
E |---------------------------------------------------------------------------|
A |---------------------------------------------------------------------------|

B |---------------------------------------------------------------------------|
F#|---------------------------------------------------------------------------|
D |--9-9-9-9-9-9-9-9-9-9-9-9-9-9-9-9------------------------------------------|
A |---------------------------------------------------------------------------|
E |---------------------------------------------------------------------------|
A |---------------------------------------------------------------------------|

B |---------------------------------------------------------------------------|
F#|---------------------------------------------------------------------------|
D |--10-10-10-10-10-10-10-10-12-12-12-12-12-12-12-12--------------------------|
A |---------------------------------------------------------------------------|
E |---------------------------------------------------------------------------|
A |---------------------------------------------------------------------------|

B |---------------------------------------------------------------------------|
F#|---------------------------------------------------------------------------|
D |--14-14-14-14-14-14-10-10-10-10-10-10-9-9-9-9------------------------------|
A |---------------------------------------------------------------------------|
E |---------------------------------------------------------------------------|
A |---------------------------------------------------------------------------|

B |---------------------------------------------------------------------------|
F#|---------------------------------------------------------------------------|
D |--12-12-12-12-12-12-10-10-10-10-10-10-9-9-9-9------------------------------|
A |---------------------------------------------------------------------------|
E |---------------------------------------------------------------------------|
A |---------------------------------------------------------------------------|

B |---------------------------------------------------------------------------|
F#|--7-7-7-7-7-7-7-7-7-7-7-7-7-7-7-7-9-9-9-9-9-9-9-9-9-9-9-9-9-9-9-9----------|
D |---------------------------------------------------------------------------|
A |---------------------------------------------------------------------------|
E |---------------------------------------------------------------------------|
A |---------------------------------------------------------------------------|

B |---------------------------------------------------------------------------|
F#|---------------------------------------------------------------------------|
D |---------------------------------------------------------------------------|
A |----------------0----------------------------------------------------------|
E |--0-0-0--0-0--0-0--------0-0-0--0-0--0--0--0-0-0-0-0-----------------------|
A |--0-0-0--0-0--0-0--------0-0-0--0-0--0--0--0-0-0-0-0-----------------------|
"I GET UUUUUUP!..."


B |---------------------------------------------------------------------------|
F#|---------------------------------------------------------------------------|
D |---------------------------------------------------------------------------|
A |----------------5----------------------------------------------------------|
E |--5-5-5--5-5--5-5--------3-3-3--3-3--3--3--3-3-3-3-3-----------------------|
A |--5-5-5--5-5--5-5--------3-3-3--3-3--3--3--3-3-3-3-3-----------------------|
^^Repeat above two bars 2x

B |---------------------------------------------------------------------------|
F#|---------------------------------------------------------------------------|
D |---------------------------------------------------------------------------|
A |------------------------10----------------------12-----12------------------|
E |--8b------------------------8b----------------8------8---------------------|
A |-----0-0-0-0-0--0--0--0----0---0--0-0-0-0-0h8------8------0----------------|
        * *   * *             *      * * * *                 *

^^Repeat last bar 4x (Notice the slight timing differences between the open A's)

B |---------------------------------------------------------------------------|
F#|---------------------------------------------------------------------------|
D |---------------------------------------------------------------------------|
A |---------------------------------------------------------------------------|
E |--0-0-0--0-0--0-0--------0-0-0--0-0--0--0--0-0-0-0-0-----------------------|
A |--0-0-0--0-0--0-0--------0-0-0--0-0--0--0--0-0-0-0-0-----------------------|
^^Repeat last bar 2x

B |---------------------------------------------------------------------------|
F#|---------------------------------------------------------------------------|
D |---------------------------------------------------------------------------|
A |--0------------------------------------------------0-----------------------|
E |--0------------------------------------------------0-----------------------|
A |--0------------------------------------------------0-----------------------|

B |---------------------------------------------------------------------------|
F#|---------------------------------------------------------------------------|
D |---------------------------------------------------------------------------|
A |---------------------------------------------------------------------------|
E |--0-0-0-0--0-0-0-0-0-------------------------------------------------------|
A |--0-0-0-0--0-0-0-0-0-------------------------------------------------------|
"No one... BLOCKS MY PATH!"

B |---------------------------------------------------------------------------|
F#|---------------------------------------------------------------------------|
D |---------------------------------------------------------------------------|
A |---------------------------------------------------------------------------|
E |---------------------------------------------------------------------------|
A |-0-0-0-0--0-0-0-0-0--0-0-0-0-0-0-0-0--0-0-0-0-0-0--0--0-0------------------|  
    * * *    * * * *    * * * * * * *    * *   * *        

B |---------------------------------------------------------------------------|
F#|---------------------------------------------------------------------------|
D |---------------------------------------------------------------------------|
A |---------------------------------------------------------------------------|
E |------------------------------------------------1b-------------------------|
A |-0-0-0-0--0-0-0-0-0--0-0-0-0-0-0-0-0--0-0--1bp0----------------------------|
    * * *    * * * *    * * * * * * *    * *
^^Repeat last two bars 2x

B |---------------------------------------------------------------------------|
F#|---------------------------------------------------------------------------|
D |---------------------------------------------------------------------------|
A |---------------------------------------------------------------------------|
E |--0-0-0-0--0-0-0-0-0-------------------------------------------------------|
A |--0-0-0-0--0-0-0-0-0-------------------------------------------------------|

B |---------------------------------------------------------------------------|
F#|---------------------------------------------------------------------------|
D |---------------------------------------------------------------------------|
A |---------------------------------------------5----5-5-5-5------------------|
E |--0-0-0-0--0-0-0-0-0--------0-0-0-0--0-0-0-0-5----5-5-5-5------------------|
A |--0-0-0-0--0-0-0-0-0--------0-0-0-0--0-0-0-0-5----5-5-5-5------------------|

B |---------------------------------------------------------------------------|
F#|---------------------------------------------------------------------------|
D |--14-14-14-14-14-14-10-10-10-10-10-10-9-9-9-9------------------------------|
A |---------------------------------------------------------------------------|
E |---------------------------------------------------------------------------|
A |---------------------------------------------------------------------------|

B |---------------------------------------------------------------------------|
F#|---------------------------------------------------------------------------|
D |--12-12-12-12-12-12-10-10-10-10-10-10-9-9-9-9------------------------------|
A |---------------------------------------------------------------------------|
E |---------------------------------------------------------------------------|
A |---------------------------------------------------------------------------|

B |---------------------------------------------------------------------------|
F#|---------------------------------------------------------------------------|
D |--9-9-9-9-9-9-9-9-9-9-9-9-9-9-9-9------------------------------------------|
A |---------------------------------------------------------------------------|
E |---------------------------------------------------------------------------|
A |---------------------------------------------------------------------------|

B |---------------------------------------------------------------------------|
F#|---------------------------------------------------------------------------|
D |--10-10-10-10-10-10-10-10-12-12-12-12-12-12-12-12--------------------------|
A |---------------------------------------------------------------------------|
E |---------------------------------------------------------------------------|
A |---------------------------------------------------------------------------|

B |---------------------------------------------------------------------------|
F#|---------------------------------------------------------------------------|
D |--14-14-14-14-14-14-10-10-10-10-10-10-9-9-9-9------------------------------|
A |---------------------------------------------------------------------------|
E |---------------------------------------------------------------------------|
A |---------------------------------------------------------------------------|

B |---------------------------------------------------------------------------|
F#|---------------------------------------------------------------------------|
D |--12-12-12-12-12-12-10-10-10-10-10-10-9-9-9-9------------------------------|
A |---------------------------------------------------------------------------|
E |---------------------------------------------------------------------------|
A |---------------------------------------------------------------------------|

B |---------------------------------------------------------------------------|
F#|--7-7-7-7-7-7-7-7-7-7-7-7-7-7-7-7-9-9-9-9-9-9-9-9-9-9-9-9-9-9-9-9----------|
D |---------------------------------------------------------------------------|
A |---------------------------------------------------------------------------|
E |---------------------------------------------------------------------------|
A |---------------------------------------------------------------------------|

B |---------------------------------------------------------------------------|
F#|---------------------------------------------------------------------------|
D |--14-14-14-14-14-14-10-10-10-10-10-10-9-9-9-9------------------------------|
A |---------------------------------------------------------------------------|
E |---------------------------------------------------------------------------|
A |---------------------------------------------------------------------------|

B |---------------------------------------------------------------------------|
F#|---------------------------------------------------------------------------|
D |--12-12-12-12-12-12-10-10-10-10-10-10-9-9-9-9------------------------------|
A |---------------------------------------------------------------------------|
E |---------------------------------------------------------------------------|
A |---------------------------------------------------------------------------|

B |---------------------------------------------------------------------------|
F#|---------------------------------------------------------------------------|
D |--9-9-9-9-9-9-9-9-9-9-9-9-9-9-9-9------------------------------------------|
A |---------------------------------------------------------------------------|
E |---------------------------------------------------------------------------|
A |---------------------------------------------------------------------------|

B |---------------------------------------------------------------------------|
F#|---------------------------------------------------------------------------|
D |--10-10-10-10-10-10-10-10-12-12-12-12-12-12-12-12--------------------------|
A |---------------------------------------------------------------------------|
E |---------------------------------------------------------------------------|
A |---------------------------------------------------------------------------|

B |---------------------------------------------------------------------------|
F#|---------------------------------------------------------------------------|
D |--14-14-14-14-14-14-10-10-10-10-10-10-9-9-9-9------------------------------|
A |---------------------------------------------------------------------------|
E |---------------------------------------------------------------------------|
A |---------------------------------------------------------------------------|

B |---------------------------------------------------------------------------|
F#|---------------------------------------------------------------------------|
D |--12-12-12-12-12-12-10-10-10-10-10-10-9-9-9-9------------------------------|
A |----------------------------------------------7----------------------------|
E |----------------------------------------------7----------------****\-------|
A |----------------------------------------------7----------------****\-------|
                                                                 ^Pick Scrape

B |---------------------------------------------------------------------------|
F#|---------------------------------------------------------------------------|
D |---------------------------------------------------------------------------|
A |------------7-----7----------7-----7---------------------------------------|
E |------0--0-----0-------0--0-----0-------0h5h8p7----------------------------|
A |---------------------------------------------------------------------------|

B |---------------------------------------------------------------------------|
F#|---------------------------------------------------------------------------|
D |---------------------------------------------------------------------------|
A |--------7-----7----------7-----7-------------------------------------------|
E |--0--0-----0-------0--0-----0----------------------------------------------|
A |------------------------------------0h7h10p9-------------------------------|

B |---------------------------------------------------------------------------|
F#|---------------------------------------------------------------------------|
D |---------------------------------------------------------------------------|
A |--------7-----7----------7-----7-------------------------------------------|
E |--0--0-----0-------0--0-----0-------0h5h8p7--------------------------------|
A |---------------------------------------------------------------------------|
 
B |---------------------------------------------------------------------------|
F#|---------------------------------------------------------------------------|
D |---------------------------------------------------------------------------|
A |--10-----9-----5-----7-----10-----9-----12-----12h14-----------------------|
E |------0-----0-----0-----0------0-----0------0------------------------------|
A |---------------------------------------------------------------------------|

B |---------------------------------------------------------------------------|
F#|---------------------------------------------------------------------------|
D |---------------------------------------------------------------------------|
A |------------7-----7----------7-----7---------------------------------------|
E |------0--0-----0-------0--0-----0-------0h5h8p7----------------------------|
A |---------------------------------------------------------------------------|

B |---------------------------------------------------------------------------|
F#|---------------------------------------------------------------------------|
D |---------------------------------------------------------------------------|
A |--------7-----7----------7-----7-------------------------------------------|
E |--0--0-----0-------0--0-----0----------------------------------------------|
A |------------------------------------0h7h10p9-------------------------------|

B |---------------------------------------------------------------------------|
F#|---------------------------------------------------------------------------|
D |---------------------------------------------------------------------------|
A |--------7-----7----------7-----7-------------------------------------------|
E |--0--0-----0-------0--0-----0-------0h5h8p7--------------------------------|
A |---------------------------------------------------------------------------|

B |--17------------15---------------------------------------------------------|
F#|------15----15------12----12--12\10-10-10/12-12-12/13-13-13/15-15-15-------|
D |---------------------------------------------------------------------------|
A |---------------------------------------------------------------------------|
E |---------------------------------------------------------------------------|
A |---------------------------------------------------------------------------|

B |--17------------15---------------------------------------------------------|
F#|------15----15------12----12-----------------------------------------------|
D |---------------------------------------------------------------------------|
A |---------------------------------------------------------------------------|
E |---------------------------------------------------------------------------|
A |---------------------------------------------------------------------------|

B |---------------------------------------------------------------------------|
F#|--12\10-10-10-10-10-10-10-10-10-10-10-10-10-10-10--------------------------|
D |---------------------------------------------------------------------------|
A |---------------------------------------------------------------------------|
E |---------------------------------------------------------------------------|
A |---------------------------------------------------------------------------|

B |--17------------15---------------------------------------------------------|
F#|------15----15------12----12--12\10-10-10/12-12-12/13-13-13/15-15-15-------|
D |---------------------------------------------------------------------------|
A |---------------------------------------------------------------------------|
E |---------------------------------------------------------------------------|
A |---------------------------------------------------------------------------|

B |--17------------15---------------------------------------------------------|
F#|------15----15------12----12-----------------------------------------------|
D |---------------------------------------------------------------------------|
A |---------------------------------------------------------------------------|
E |---------------------------------------------------------------------------|
A |---------------------------------------------------------------------------|

B |---------------------------------------------------------------------------|
F#|---------------------------------------------------------------------------|
D |---------------------------------------------------------------------------|
A |--0------------------------------------------------0-----------------------|
E |--0------------------------------------------------0-----------------------|
A |--0------------------------------------------------0-----------------------|
"Your decision!..."

B |---------------------------------------------------------------------------|
F#|---------------------------------------------------------------------------|
D |---------------------------------------------------------------------------|
A |--5ah----------------------------------------------------------------------|
E |--5ah----------------------------------------------************\-----------|
A |--5ah----------------------------------------------************\-----------|

B |---------------------------------------------------------------------------|
F#|---------------------------------------------------------------------------|
D |---------------------------------------------------------------------------|
A |--0------------------------------------------------------------------------|
E |--0--0--0--0---------------------------------------------------------------|
A |--0--0--0--0---------------------------------------------------------------|

B |---------------------------------------------------------------------------|
F#|---------------------------------------------------------------------------|
D |---------------------------------------------------------------------------|
A |--7--7--7--7--7--7--7--7--7--7--7--7--7------1------1----------------------|
E |--7--7--7--7--7--7--7--7--7--7--7--7--7--0-0-1--0-0-1--0-------------------|
A |--7--7--7--7--7--7--7--7--7--7--7--7--7--0-0-1--0-0-1--0-------------------|
        *     *     *     *     *     *     * *    * *    

B |---------------------------------------------------------------------------|
F#|---------------------------------------------------------------------------|
D |---------------------------------------------------------------------------|
A |--7--7--7--7--7--7-----7--6------------------------------------------------|
E |--7--7--7--7--7--7-----5--4------6--5--0-0-3-------------------------------|
A |--7--7--7--7--7--7--0--------0-0-6--5--0-0-3-------------------------------|
        *     *     *           * *       * *

B |---------------------------------------------------------------------------|
F#|---------------------------------------------------------------------------|
D |---------------------------------------------------------------------------|
A |--7--7--7--7--7--7--7--7--7--7--7--7--7------1------1----------------------|
E |--7--7--7--7--7--7--7--7--7--7--7--7--7--0-0-1--0-0-1--0-------------------|
A |--7--7--7--7--7--7--7--7--7--7--7--7--7--0-0-1--0-0-1--0-------------------|
        *     *     *     *     *     *     * *    * *    


B |---------------------------------------------------------------------------|
F#|---------------------------------------------------------------------------|
D |---------------------------------------------------------------------------|
A |--7--7--7--7--7--7-----------------3--2--5---------------------------------|
E |--7--7--7--7--7--7--0-0-0--0-0-0-0-3--2--5---------------------------------|
A |--7--7--7--7--7--7--0-0-0--0-0-0-0-3--2--5---------------------------------|
        *     *     *  * * *  * * * *


B |---------------------------------------------------------------------------|
F#|---------------------------------------------------------------------------|
D |---------------------------------------------------------------------------|
A |--7--7--7--7--7--7--7--7--7--7--7--7--7------1------1----------------------|
E |--7--7--7--7--7--7--7--7--7--7--7--7--7--0-0-1--0-0-1--0-------------------|
A |--7--7--7--7--7--7--7--7--7--7--7--7--7--0-0-1--0-0-1--0-------------------|
        *     *     *     *     *     *     * *    * *    


B |---------------------------------------------------------------------------|
F#|---------------------------------------------------------------------------|
D |---------------------------------------------------------------------------|
A |--7--7--7--7--7--7-----7--6------------------------------------------------|
E |--7--7--7--7--7--7-----5--4------6--5--0-0-3-------------------------------|
A |--7--7--7--7--7--7--0--------0-0-6--5--0-0-3-------------------------------|
        *     *     *           * *       * *

B |---------------------------------------------------------------------------|
F#|---------------------------------------------------------------------------|
D |---------------------------------------------------------------------------|
A |--7--7--7--7--7--7--7--7--7--7--7--7--7------1------1----------------------|
E |--7--7--7--7--7--7--7--7--7--7--7--7--7--0-0-1--0-0-1--0-------------------|
A |--7--7--7--7--7--7--7--7--7--7--7--7--7--0-0-1--0-0-1--0-------------------|
        *     *     *     *     *     *     * *    * *    


B |---------------------------------------------------------------------------|
F#|---------------------------------------------------------------------------|
D |---------------------------------------------------------------------------|
A |--7--7--7--7--7--7-----5--4------3--2--------------------------------------|
E |--7--7--7--7--7--7--0--5--4--0-0-3--2--------------------------------------|
A |--7--7--7--7--7--7--0--5--4--0-0-3--2--------------------------------------|
        *     *     *           * *


Tap to rate this tab
 
# A B C D E F G H I J K L M N O P Q R S T U V W X Y Z