Song name
# A B C D E F G H I J K L M N O P Q R S T U V W X Y Z

Breakdown Of Sanity - The Writer tab

Hey guys, Julian here from Germany, this is my first tab so leave your commentes and thinkings in the 
commentsection below if there are any problems with the tabs.

Tuning is Drop C 

\/ = pull down and right after that back up to the startingpoint (the string is "level 0" and you 
pull it down to "level -1" back to 0)



C|----------------------------------------------------|
G|-------7-------12-10-8-7-8------7-----------------7-|
C|------------------------------------------7-9-7-9---|
F|---9-9---9-9----------------9-9---9-9--7------------|
A|----------------------------------------------------|
D|----------------------------------------------------|


C|-----------------------------------------------------------------------|
G|-------7-------12-10-8-7\/-----7-----------------7-----12-12-11-11-8-8-|
C|-----------------------------------------7-9-7-9-----------------------|
F|---9-9---9-9-----------------9---9-9--7--------------------------------|
A|-----------------------------------------------------------------------|
D|-----------------------------------------------------------------------|
Tap to rate this tab
 
# A B C D E F G H I J K L M N O P Q R S T U V W X Y Z