Song name
# A B C D E F G H I J K L M N O P Q R S T U V W X Y Z

Breakdown Of Sanity - Blind tab

Repeat This x3 =

E|-------------------------------------------------------------------------|
B|-------------------------------------------------------------------------|
G|-------------------------------------------------------------------------|
D|-14\---------------------------------------------------------------------|
A|-12\--------7-----7----------7-----7-------------------------------------|
E|-12\--0--0-----0-------0--0-----0-------0h5h8p7--------------------------|

E|-------------------------------------------------------------------------|
B|-------------------------------------------------------------------------|
G|-------------------------------------------------------------------------|
D|-------------------------------------------------------------------------|
A|--------7-----7----------7-----7----0h7h10p9-----------------------------|
E|--0--0-----0-------0--0-----0--------------------------------------------|

E|-------------------------------------------------------------------------|
B|-------------------------------------------------------------------------|
G|-------------------------------------------------------------------------|
D|-------------------------------------------------------------------------|
A|--------7-----7----------7-----7-----------------------------------------|
E|--0--0-----0-------0--0-----0-------0h5h8p7------------------------------|

E|-------------------------------------------------------------------------| 
B|-------------------------------------------------------------------------|
G|-------------------------------------------------------------------------|
D|-------------------------------------------------------------------------|
A|--10-----9-----5-----7-----10-----9-----12-----12h14---------------------|
E|------0-----0-----0-----0------0-----0------0----------------------------|

E|-------------------------------------------------------------------------|
B|-------------------------------------------------------------------------|
G|-------------------------------------------------------------------------|
D|------------------------7--7--7--7--7--7--7--7---------------------------|
A|--10-----9-----5-----7--5--5--5--5--5--5--5--5---------------------------|
E|------0-----0-----0-----5--5--5--5--5--5--5--5---------------------------|

E|-------------------------------------------------------------------------|
B|-------------------------------------------------------------------------|
G|-------------------------------------------------------------------------|
D|--14-14-14-14-14-14-10-10-10-10-10-10-9-9-9-9----------------------------|
A|-------------------------------------------------------------------------|
E|-------------------------------------------------------------------------|

E|-------------------------------------------------------------------------|
B|-------------------------------------------------------------------------|
G|-------------------------------------------------------------------------|
D|--12-12-12-12-12-12-10-10-10-10-10-10-9-9-9-9----------------------------|
A|-------------------------------------------------------------------------|
E|-------------------------------------------------------------------------|

E|-------------------------------------------------------------------------|
B|-------------------------------------------------------------------------|
G|-------------------------------------------------------------------------|
D|--9-9-9-9-9-9-9-9-9-9-9-9-9-9-9-9----------------------------------------|
A|-------------------------------------------------------------------------|
E|-------------------------------------------------------------------------|

E|-------------------------------------------------------------------------|
B|-------------------------------------------------------------------------|
G|-------------------------------------------------------------------------|
D|--10-10-10-10-10-10-10-10-12-12-12-12-12-12-12-12------------------------|
A|-------------------------------------------------------------------------|
E|-------------------------------------------------------------------------|

E|-------------------------------------------------------------------------|
B|-------------------------------------------------------------------------|
G|-------------------------------------------------------------------------|
D|--14-14-14-14-14-14-10-10-10-10-10-10-9-9-9-9----------------------------|
A|-------------------------------------------------------------------------|
E|-------------------------------------------------------------------------|

E|-------------------------------------------------------------------------|
B|-------------------------------------------------------------------------|
G|-------------------------------------------------------------------------|
D|--12-12-12-12-12-12-10-10-10-10-10-10-9-9-9-9----------------------------|
A|-------------------------------------------------------------------------|
E|-------------------------------------------------------------------------|

E|-------------------------------------------------------------------------|
B|-------------------------------------------------------------------------|
G|--6-6-6-6-6-6-6-6-6-6-6-6-6-6-6-6-8-8-8-8-8-8-8-8-8-8-8-8-8-8-8-8--------|
D|-------------------------------------------------------------------------|
A|-------------------------------------------------------------------------|
E|-------------------------------------------------------------------------|

Repeat This x2 =

E|-------------------------------------------------------------------------|
B|-------------------------------------------------------------------------|
G|-------------------------------------------------------------------------|
D|----------------2--------------------------------------------------------|
A|--0-0-0--0-0--0-0--------0-0-0--0-0--0--0--0-0-0-0-0---------------------|
E|--0-0-0--0-0--0-0--------0-0-0--0-0--0--0--0-0-0-0-0---------------------|

E|-------------------------------------------------------------------------|
B|-------------------------------------------------------------------------|
G|-------------------------------------------------------------------------|
D|----------------7--------------------------------------------------------|
A|--5-5-5--5-5--5-5--------3-3-3--3-3--3--3--3-3-3-3-3---------------------|
E|--5-5-5--5-5--5-5--------3-3-3--3-3--3--3--3-3-3-3-3---------------------|

E|----------------------------------------------------------------------|
B|----------------------------------------------------------------------|
G|----------------------------------------------------------------------|(x4)
D|----------------------------------------------------------------------|
A|-----0-0-0-0-0--0--0--0-10-0---0--0-0-0-0-0h8---12-8---12-0-----------|
E|--8b------------------------8b----------------8------8----------------|

E|----------------------------------------------------------------------|
B|----------------------------------------------------------------------|
G|----------------------------------------------------------------------|(x2)
D|----------------------------------------------------------------------|
A|--0-0-0--0-0--0-0--------0-0-0--0-0--0--0--0-0-0-0-0------------------|
E|--0-0-0--0-0--0-0--------0-0-0--0-0--0--0--0-0-0-0-0------------------|

E|-------------------------------------------------------------------------|
B|-------------------------------------------------------------------------|
G|-------------------------------------------------------------------------|
D|--2------------------------------------------------2---------------------|
A|--0------------------------------------------------0---------------------|
E|--0------------------------------------------------0---------------------|

E|-------------------------------------------------------------------------|
B|-------------------------------------------------------------------------|
G|-------------------------------------------------------------------------|
D|-------------------------------------------------------------------------|
A|--0-0-0-0--0-0-0-0-0-----------------------------------------------------|
E|--0-0-0-0--0-0-0-0-0-----------------------------------------------------|

E|-------------------------------------------------------------------------|
B|-------------------------------------------------------------------------|
G|-------------------------------------------------------------------------|
D|-------------------------------------------------------------------------|
A|-0-0-0-0--0-0-0-0-0--0-0-0-0-0-0-0-0--0-0-0-0-0-0--0--0-0----------------|
E|-------------------------------------------------------------------------| 

E|----------------------------------------------------------------------|
B|----------------------------------------------------------------------|
G|----------------------------------------------------------------------|(x2)
D|----------------------------------------------------------------------|
A|-0-0-0-0--0-0-0-0-0--0-0-0-0-0-0-0-0--0-0--1bp0-----------------------|
E|------------------------------------------------1b--------------------|

E|-------------------------------------------------------------------------|
B|-------------------------------------------------------------------------|
G|-------------------------------------------------------------------------|
D|-------------------------------------------------------------------------|
A|--0-0-0-0--0-0-0-0-0-----------------------------------------------------|
E|--0-0-0-0--0-0-0-0-0-----------------------------------------------------|

E|-------------------------------------------------------------------------|
B|-------------------------------------------------------------------------|
G|-------------------------------------------------------------------------|
D|---------------------------------------------7----7-7-7-7----------------|
A|--0-0-0-0--0-0-0-0-0--------0-0-0-0--0-0-0-0-5----5-5-5-5----------------|
E|--0-0-0-0--0-0-0-0-0--------0-0-0-0--0-0-0-0-5----5-5-5-5----------------|

E|-------------------------------------------------------------------------|
B|-------------------------------------------------------------------------|
G|-------------------------------------------------------------------------|
D|--14-14-14-14-14-14-10-10-10-10-10-10-9-9-9-9----------------------------|
A|-------------------------------------------------------------------------|
E|-------------------------------------------------------------------------|

E|------------------------------------------------------------------------|
B|------------------------------------------------------------------------|
G|------------------------------------------------------------------------|
D|--12-12-12-12-12-12-10-10-10-10-10-10-9-9-9-9---------------------------|
A|------------------------------------------------------------------------|
E|------------------------------------------------------------------------|

E|------------------------------------------------------------------------|
B|------------------------------------------------------------------------|
G|------------------------------------------------------------------------|
D|--9-9-9-9-9-9-9-9-9-9-9-9-9-9-9-9---------------------------------------|
A|------------------------------------------------------------------------|
E|------------------------------------------------------------------------|

E|------------------------------------------------------------------------|
B|------------------------------------------------------------------------|
G|------------------------------------------------------------------------|
D|--10-10-10-10-10-10-10-10-12-12-12-12-12-12-12-12-----------------------|
A|------------------------------------------------------------------------|
E|------------------------------------------------------------------------| 

E|------------------------------------------------------------------------|
B|------------------------------------------------------------------------|
G|------------------------------------------------------------------------|
D|--14-14-14-14-14-14-10-10-10-10-10-10-9-9-9-9---------------------------|
A|------------------------------------------------------------------------|
E|------------------------------------------------------------------------|

E|------------------------------------------------------------------------|
B|------------------------------------------------------------------------|
G|------------------------------------------------------------------------|
D|--12-12-12-12-12-12-10-10-10-10-10-10-9-9-9-9---------------------------|
A|------------------------------------------------------------------------|
E|------------------------------------------------------------------------|

E|------------------------------------------------------------------------|
B|------------------------------------------------------------------------|
G|--7-7-7-7-7-7-7-7-7-7-7-7-7-7-7-7-9-9-9-9-9-9-9-9-9-9-9-9-9-9-9-9-------|
D|------------------------------------------------------------------------|
A|------------------------------------------------------------------------|
E|------------------------------------------------------------------------|

E|------------------------------------------------------------------------|
B|------------------------------------------------------------------------|
G|------------------------------------------------------------------------|
D|--14-14-14-14-14-14-10-10-10-10-10-10-9-9-9-9---------------------------|
A|------------------------------------------------------------------------|
E|------------------------------------------------------------------------|

E|------------------------------------------------------------------------|
B|------------------------------------------------------------------------|
G|------------------------------------------------------------------------|
D|--12-12-12-12-12-12-10-10-10-10-10-10-9-9-9-9---------------------------|
A|------------------------------------------------------------------------|
E|------------------------------------------------------------------------|

E|-----------------------------------------------------------------------|
B|-----------------------------------------------------------------------|
G|-----------------------------------------------------------------------|
D|--9-9-9-9-9-9-9-9-9-9-9-9-9-9-9-9--------------------------------------|
A|-----------------------------------------------------------------------|
E|-----------------------------------------------------------------------|

E|-----------------------------------------------------------------------|
B|-----------------------------------------------------------------------|
G|-----------------------------------------------------------------------|
D|--10-10-10-10-10-10-10-10-12-12-12-12-12-12-12-12----------------------|
A|-----------------------------------------------------------------------|
E|-----------------------------------------------------------------------|

E|-----------------------------------------------------------------------|
B|-----------------------------------------------------------------------|
G|-----------------------------------------------------------------------|
D|--14-14-14-14-14-14-10-10-10-10-10-10-9-9-9-9--------------------------|
A|-----------------------------------------------------------------------|
E|-----------------------------------------------------------------------|

E|---------------------------------------------------------------|
B|---------------------------------------------------------------|
G|----------------------------------------------9----------------|
D|--12-12-12-12-12-12-10-10-10-10-10-10-9-9-9-9-9----------------|
A|----------------------------------------------7----------------|
E|---------------------------------------------------------------|

E|----------------------------------------------------|
B|----------------------------------------------------|
G|----------------------------------------------------|
D|----------------------------------------------------|
A|------------7-----7----------7-----7----------------|
E|------0--0-----0-------0--0-----0-------0h5h8p7-----|

E|-----------------------------------------------------------------------|
B|-----------------------------------------------------------------------|
G|-----------------------------------------------------------------------|
D|-----------------------------------------------------------------------|
A|--------7-----7----------7-----7----0h7h10p9---------------------------|
E|--0--0-----0-------0--0-----0------------------------------------------|

E|-----------------------------------------------------------------------|
B|-----------------------------------------------------------------------|
G|-----------------------------------------------------------------------|
D|-----------------------------------------------------------------------|
A|--------7-----7----------7-----7---------------------------------------|
E|--0--0-----0-------0--0-----0-------0h5h8p7----------------------------|

E|-----------------------------------------------------------------------| 
B|-----------------------------------------------------------------------|
G|-----------------------------------------------------------------------|
D|-----------------------------------------------------------------------|
A|--10-----9-----5-----7-----10-----9-----12-----12h14-------------------|
E|------0-----0-----0-----0------0-----0------0--------------------------|

E|-----------------------------------------------------------------------|
B|-----------------------------------------------------------------------|
G|-----------------------------------------------------------------------|
D|-----------------------------------------------------------------------|
A|------------7-----7----------7-----7-----------------------------------|
E|------0--0-----0-------0--0-----0-------0h5h8p7------------------------|

E|-----------------------------------------------------------------------|
B|-----------------------------------------------------------------------|
G|-----------------------------------------------------------------------|
D|-----------------------------------------------------------------------|
A|--------7-----7----------7-----7----0h7h10p9---------------------------|
E|--0--0-----0-------0--0-----0------------------------------------------|

E|-----------------------------------------------------------------------|
B|-----------------------------------------------------------------------|
G|-----------------------------------------------------------------------|
D|-----------------------------------------------------------------------|
A|--------7-----7----------7-----7---------------------------------------|
E|--0--0-----0-------0--0-----0-------0h5h8p7----------------------------|

E|-----------------------------------------------------------------------|
B|--17------------15-----------------------------------------------------|
G|------14----14------11----11--11\9--9--9/11-11-11/12-12-12/14-14-14----|
D|-----------------------------------------------------------------------|
A|-----------------------------------------------------------------------|
E|-----------------------------------------------------------------------|

E|-----------------------------------------------------------------------|
B|--17------------15-----------------------------------------------------|
G|------15----15------12----12-------------------------------------------|
D|-----------------------------------------------------------------------|
A|-----------------------------------------------------------------------|
E|-----------------------------------------------------------------------|

E|------------------------------------------------------------|
B|------------------------------------------------------------|
G|--11\9-9-9-9-9-9-9-9-9-9-9-9-9-9-9--------------------------|
D|------------------------------------------------------------|
A|------------------------------------------------------------|
E|------------------------------------------------------------|

E|-----------------------------------------------------------------------|
B|--17------------15-----------------------------------------------------|
G|------14----14------11----11--11\9-9-9/11-11-11/12-12-12/14-14-14------|
D|-----------------------------------------------------------------------|
A|-----------------------------------------------------------------------|
E|-----------------------------------------------------------------------|

E|-----------------------------------------------------------------------|
B|--17------------15-----------------------------------------------------|
G|------14----14------11----11-------------------------------------------|
D|-----------------------------------------------------------------------|
A|-----------------------------------------------------------------------|
E|-----------------------------------------------------------------------|

E|----------------------------------------------------------------------|
B|----------------------------------------------------------------------|
G|----------------------------------------------------------------------|
D|--2------------------------------------------------2------------------|
A|--0------------------------------------------------0------------------|
E|--0------------------------------------------------0------------------|

E|--------------------------------------------------------|
B|--------------------------------------------------------|
G|--------------------------------------------------------|
D|--7h----------------------------------------------------|
A|--5h----------------------------------------------------|
E|--5h----------------------------------------------------|

E|----------------------------------------------------------------------|
B|----------------------------------------------------------------------|
G|----------------------------------------------------------------------|
D|--2-------------------------------------------------------------------|
A|--0--0--0--0----------------------------------------------------------|
E|--0--0--0--0----------------------------------------------------------|

E|----------------------------------------------------------------------|
B|----------------------------------------------------------------------|
G|----------------------------------------------------------------------|
D|--9--9--9--9--9--9--9--9--9--9--9--9--9------3------3-----------------|
A|--7--7--7--7--7--7--7--7--7--7--7--7--7--0-0-1--0-0-1--0--------------|
E|--7--7--7--7--7--7--7--7--7--7--7--7--7--0-0-1--0-0-1--0--------------|

E|----------------------------------------------------------------------|    
B|----------------------------------------------------------------------|
G|----------------------------------------------------------------------|
D|--9--9--9--9--9--9--0--------0-0--------------------------------------|
A|--7--7--7--7--7--7-----7--6------6--5--0-0-3--------------------------|
E|--7--7--7--7--7--7-----5--4------6--5--0-0-3--------------------------|

E|----------------------------------------------------------------------|
B|----------------------------------------------------------------------|
G|----------------------------------------------------------------------|
D|--9--9--9--9--9--9--9--9--9--9--9--9--9------3------3-----------------|
A|--7--7--7--7--7--7--7--7--7--7--7--7--7--0-0-1--0-0-1--0--------------|
E|--7--7--7--7--7--7--7--7--7--7--7--7--7--0-0-1--0-0-1--0--------------|

E|----------------------------------------------------------------------|
B|----------------------------------------------------------------------|
G|----------------------------------------------------------------------|
D|--9--9--9--9--9--9-----------------5--4--7----------------------------|
A|--7--7--7--7--7--7--0-0-0--0-0-0-0-3--2--5----------------------------|
E|--7--7--7--7--7--7--0-0-0--0-0-0-0-3--2--5----------------------------|
      
E|----------------------------------------------------------------------|
B|----------------------------------------------------------------------|
G|----------------------------------------------------------------------|
D|--9--9--9--9--9--9--9--9--9--9--9--9--9------3------3-----------------|
A|--7--7--7--7--7--7--7--7--7--7--7--7--7--0-0-1--0-0-1--0--------------|
E|--7--7--7--7--7--7--7--7--7--7--7--7--7--0-0-1--0-0-1--0--------------|

E|----------------------------------------------------------------------|
B|----------------------------------------------------------------------|
G|----------------------------------------------------------------------|
D|--9--9--9--9--9--9----------------------------------------------------|
A|--7--7--7--7--7--7--0--7--6--0-0-6--5--0-0-3--------------------------|
E|--7--7--7--7--7--7-----5--4------6--5--0-0-3--------------------------|
       
E|----------------------------------------------------------------------|
B|----------------------------------------------------------------------|
G|----------------------------------------------------------------------|
D|--9--9--9--9--9--9--9--9--9--9--9--9--9------3------3-----------------|
A|--7--7--7--7--7--7--7--7--7--7--7--7--7--0-0-1--0-0-1--0--------------|
E|--7--7--7--7--7--7--7--7--7--7--7--7--7--0-0-1--0-0-1--0--------------|
      
E|----------------------------------------------------------------------|
B|----------------------------------------------------------------------|
G|----------------------------------------------------------------------|
D|--9--9--9--9--9--9-----7--6------5--4---------------------------------|
A|--7--7--7--7--7--7--0--5--4--0-0-3--2---------------------------------|
E|--7--7--7--7--7--7--0--5--4--0-0-3--2---------------------------------|
       



Tap to rate this tab
# A B C D E F G H I J K L M N O P Q R S T U V W X Y Z