Song name
# A B C D E F G H I J K L M N O P Q R S T U V W X Y Z

Breaking Benjamin - Follow tab

-------------------------------------------------------------------------------
			     Follow - Breaking Benjamin
-------------------------------------------------------------------------------
Tabbed by: Syn9809
Email: Reckless9809@yahoo.com

Tuning: Drop C

I have to say that i have to give some credit to cch5767,
his tab was pretty right on but needed fixes and adjustments
that i have put in, and clear some things up. So enjoy.

INTRO
D|----------------------------------------|
A|----------------------------------------|
F|----------------------------------------|
C|5-3-0-3--5-5-5-5-xx-5-3-0-8--5-5-5-5-xx-|
G|5-3-0-3--5-5-5-5-xx-5-3-0-8--5-5-5-5-xx-|
C|5-3-0-3--5-5-5-5-xx-5-3-0-8--5-5-5-5-xx-|

(Gtr.2 comes in)
D|----------------------------------------------|
A|----------------------------------------------|
F|----------------------------------------------|
C|5-3-0-3--5-5-5-5-xx-5-3-0-8--5-5-5-5-x0--x3/5-|
G|5-3-0-3--5-5-5-5-xx-5-3-0-8--5-5-5-5-x0--x3/5-|
C|5-3-0-3--5-5-5-5-xx-5-3-0-8--5-5-5-5-x0--x3/5-|

D|--------------------------------|
A|--------------------------------|
F|--------------------------------|
C|5-5-5-5--xx-5-3-0-8--5-5-5-5-xx-|
G|5-5-5-5--xx-5-3-0-8--5-5-5-5-xx-|
C|5-5-5-5--xx-5-3-0-8--5-5-5-5-xx-|

D|--------------------------------------------|
A|--------------------------------------------|
F|--------------------------------------------|
C|5-3-0-3--5-5-5-5-xx-5-3-0-8--5-5-5-5-x0--x3-|
G|5-3-0-3--5-5-5-5-xx-5-3-0-8--5-5-5-5-x0--x3-|
C|5-3-0-3--5-5-5-5-xx-5-3-0-8--5-5-5-5-x0--x3-|

VERSE
D|---------------------------------------------|
A|---------------------------------------------|
F|-------------------7-7---5-5---3-3-3-3-3-3---|
C|5-------(5)--------5-5---3-3---1-1-1-1-1-1--3|
G|5-------(5)--------5-5---3-3---1-1-1-1-1-1--3|
C|5-------(5)--------5-5---3-3---1-1-1-1-1-1--3|


D|---------------------------------------------|
A|---------------------------------------------|
F|-------------------7-7---5-5---3-3-3-3-3-3---|
C|5-------(5)--------5-5---3-3---1-1-1-1-1-1--3|
G|5-------(5)--------5-5---3-3---1-1-1-1-1-1--3|
C|5-------(5)--------5-5---3-3---1-1-1-1-1-1--3|


Rhythm
D|-------------------------------------------------------------------------|
A|-------------------------------------------------------------------------|
F|-------------------------------------------------------------------------|
C|-------------------------------------------------------------------------|
G|---------------------------------333----------------------------------333|
C|5-5555555-3-3333333-1-11111111111----5-5555555-3-3333333-1-11111111111---|
  . ....... . ....... . ...........    . ....... . ....... . ...........
Lead
D|-----------------------3--3------111-3----------------------10--10----111|
A|-----------------------3--3------111-3----------------------11--11----111|
F|-----------------------3--3----------3----------------------12--12-------|
C|-------------------------------------------------------------------------|
G|-------------------------------------------------------------------------|
C|-------------------------------------------------------------------------|

Rhythm
D|------------------------------------------------------|
A|------------------------------------------------------|
F|------------------------------------------------------|
C|--------------------------------------------------8---|
G|---------------------------------------1-1-1-1-1--8---|
C|5-5555555-3-3333333-1-11111111111-3-3--1-1-1-1-1--8---|
  . ....... . ....... . ...........
Lead
D|--------------------------------------------------8---|
A|-------------------------------------13~----------8---|
F|10--------12--------15----------------------------8---| (2nd chours)
C|---x8--------x8--------x16-----------10~--------------|
G|12--------14--------13--------------------------------|
C|------------------------------------------------------|


Chours
D|---------------------------------------------|
A|------------------------6-6666666--6-6666666-|
F|------------------------7-7777777--7-7777777-|
C|-8-8888888--3--3333333--5-5555555--8-8888888-|
G|-8-8888888--3--3333333--5-5555555--6-6666666-|
C|-8-8888888--3--3333333--5-5555555------------|

D|------------------------------------------------|
A|-----------------------6-6666666--6--6-----6--6-|
F|-----------------------7-7777777--7--7-xxx-7--7-|
C|-8-8888888--3-3333333--5-5555555--8--8-xxx-8--8-|
G|-8-8888888--3-3333333--5-5555555--6--6-xxx-6--6-|
C|-8-8888888--3-3333333--5-5555555----------------|

Intro
Verse
Chorus

Bridge
D|----------------------------------------------------------|
A|----------------------------------------------------------|
F|----------------------------------------------------------|
C|6-5-3-1-0-1-5555555500000000-6-5-3-1-0-1-5555555555553355-|
G|6-5-3-1-0-1-5555555500000000-6-5-3-1-0-1-5555555555553355-|
C|6-5-3-1-0-1-5555555500000000-6-5-3-1-0-1-5555555555553355-|

D|----------------------------------------------------------|
A|----------------------------------------------------------|
F|----------------------------------------------------------|
C|6-5-3-1-0-1-5555555500000000-6-5-3-1-0-1-5555555555555555-|
G|6-5-3-1-0-1-5555555500000000-6-5-3-1-0-1-5555555555555555-|
C|6-5-3-1-0-1-5555555500000000-6-5-3-1-0-1-5555555555555555-|

D|--------------------------------------------------------|
A|--------------------------------6--6666666--6-6666666---|
F|--------------------------------7--7777777--7-7777777---|
C|--8\------------xx-3\--------xx-5--5555555--8-8888888---|
G|--8\------------xx-3\--------xx-5--5555555--6-6666666---|
C|--8\------------xx-3\--------xx-5--5555555--------------|

D|---------------------------------------------|
A|------------------------6-6666666--6-6666666-|
F|------------------------7-7777777--7-7777777-|
C|-8-8888888--3--3333333--5-5555555--8-8888888-|
G|-8-8888888--3--3333333--5-5555555--6-6666666-|
C|-8-8888888--3--3333333--5-5555555------------|

D|---------------------------------------------|
A|------------------------6-6666666--6-6666666-|
F|------------------------7-7777777--7-7777777-|
C|-8-8888888--3--3333333--5-5555555--8-8888888-|
G|-8-8888888--3--3333333--5-5555555--6-6666666-|
C|-8-8888888--3--3333333--5-5555555------------|

D|------------------------------------------------|
A|-----------------------6-6666666--6--6-----6--6-|
F|-----------------------7-7777777--7--7-xxx-7--7-|
C|-8-8888888--3-3333333--5-5555555--8--8-xxx-8--8-|
G|-8-8888888--3-3333333--5-5555555--6--6-xxx-6--6-|
C|-8-8888888--3-3333333--5-5555555----------------|

Gtr.2
D|---10-x13---11-x15------10--x15--------------|
A|---------------------------------------------|
F|---------------------------------------------|
C|---------------------------------------------|
G|---------------------------------------------|
C|---------------------------------------------|

Outro
D|---------------------------------------------------------|
A|---------------------------------------------------------|
F|---------------------------------------------------------|
C|5-3-0-3--5--xx--3-5--xx--3-5--xx--3-5--5-3-0-3--5-xx-----|
G|5-3-0-3--5--xx--3-5--xx--3-5--xx--3-5--5-3-0-3--5-xx-----|
C|5-3-0-3--5--xx--3-5--xx--3-5--xx--3-5--5-3-0-3--5-xx-----|

D|--------------------------------------------------|
A|--------------------------------------------------|
F|--------------------------------------------------|
C|3-5--xx--3-5--xx--3-5--xx--3-5--5-3-0-3--5--------|
G|3-5--xx--3-5--xx--3-5--xx--3-5--5-3-0-3--5--------|
C|3-5--xx--3-5--xx--3-5--xx--3-5--5-3-0-3--5--------|

  /  slide up
| \  slide down
| h  hammer-on
| p  pull-off
| ~  vibrato
| +  harmonic
| x  Mute note
| .  Palm Mute
===============================================================================
Tap to rate this tab
 
# A B C D E F G H I J K L M N O P Q R S T U V W X Y Z