Song name
# A B C D E F G H I J K L M N O P Q R S T U V W X Y Z

Breaking Benjamin - Untitled tab

Breaking Benjamin
Untitled
Tabbed by U B the band
Tuning C G C F A D

Legend:
p-pull off
/-slide up
x-scratch

This song is in fact a Breaking Benjamin song but was never finished.
Shallowbay.com speaks of it in the FAQ's but gives a wrong song title.
No one but the band knows what the song is really called or if it even
has a title, hence "Untitled" by Breaking Benjamin. Shallowbay members
named it. The song doesn't have bass (up until the chorus). Ben, Aaron,
and Jeremy stopped playing after the chorus anyways. I hope you like
this rare tabbed out song.

Intro: (Aaron)
D|---------------------------------------------------------------|
A|---------------------------------------------------------------|
F|------0-----0--------0-----0--------0-----0--------0-----4p0---|
C|----3--3--3---3----3--3--3---3----3--3--3---3----3--3--3----3--|
G|---------------------------------------------------------------|
C|--5-----5--------5-----5--------3-----3--------5-----5---------|

Intro/Verse 1: (Aaron) Ben starts singing
D|---------------------------------------------------------------|
A|---------------------------------------------------------------|
F|------0-----0--------0-----0--------0-----0--------0-----4p0---|
C|----3--3--3---3----3--3--3---3----3--3--3---3----3--3--3----3--|
G|---------------------------------------------------------------|
C|--5-----5--------5-----5--------3-----3--------5-----5---------|

Verse 1: (Aaron) Ben stops singing
D|---------------------------------------------------------------|
A|---------------------------------------------------------------|
F|------0-----0--------0-----0--------0-----0--------0-----4p0---|
C|----3--3--3---3----3--3--3---3----3--3--3---3----3--3--3----3--|
G|---------------------------------------------------------------|
C|--5-----5--------5-----5--------3-----3--------5-----5---------|

Verse 1: (Ben) Ben stops singing
D|---------------------------------------------------------------|
A|---------------------------------------------------------------|
F|---------------------------------------------------------------|
C|---------------------------------------------------------------|
G|--5--------------5--------------3-------------/8-----5---------|
C|--5--------------5--------------3-------------/8-----5---------|

Verse 1 Continued: (Aaron) Ben starts singing again
D|---------------------------------------------------------------|
A|---------------------------------------------------------------|
F|------0-----0--------0-----0--------0-----0--------0-----4p0---|
C|----3--3--3---3----3--3--3---3----3--3--3---3----3--3--3----3--|
G|---------------------------------------------------------------|
C|--5-----5--------5-----5--------3-----3--------5-----5---------|x2

Verse 1 Continued (Aaron)
D|---------------------------------------------------------------|
A|---------------------------------------------------------------|
F|------0-----0--------0-----0--------0-----0--------0-----4p0---|
C|----3--3--3---3----3--3--3---3----3--3--3---3----3--3--3----3--|
G|---------------------------------------------------------------|
C|--5-----5--------5-----5--------3-----3--------5-----5---------|

Verse 1 (Ben)
D|---------------------------------------------------------------|
A|---------------------------------------------------------------|
F|---------------------------------------------------------------|
C|---------------------------------------------------------------|
G|--------------------------------3--------------5---------------|
C|--------------------------------3--------------5---------------|
Mark's done tuning and comes here-^                        

Chorus Both Guitars (Ben and Aaron) *play 3 times*
D|----------------------------------------------------|
A|----------------------------------------------------|
F|----------------5--5--5-----------------------------|
C|--3----3--3--3--5--5--5-x-3----3--3-3--3-3--33--33--|
G|--3----3--3--3--3--3--3-x-3----3--3-3--3-3--33--33--|
C|--3----3--3--3----------x-3----3--3-3--3-3--33--33--|

Chorus Continued (Ben and Aaron) *play once*
D|-----------------------------|
A|-----------------------------|
F|----------------5--5--5------|
C|--3----3--3--3--5--5--5-x-3--|
G|--3----3--3--3--3--3--3-x-3--|
C|--3----3--3--3----------x-3--|

Then they stop, no one but the band knows the rest. Maybe they will record
it someday.....I hope they do, it sounds awesome.
Tap to rate this tab
 
# A B C D E F G H I J K L M N O P Q R S T U V W X Y Z