Song name
# A B C D E F G H I J K L M N O P Q R S T U V W X Y Z

Breaking Benjamin - Without You Acoustic tab

Without You (Acoustic) 
Breaking Benjamin
Japanese Bonus Track


Some really cool sound's in here...after the first chorus, 
I didn't really listen through the Second Verse through Chorus 
or the Choruses after the Bridge for changes from the first time 
through. Also the strumming is not exact...just a general guide 
for the feel of the song. God Bless! 

Intro 

Eb:----------------------------------------------------------------:
Bb:----------------------------------------------------------------:
Gb:----------------------------------------------------------------:
Db:-7---7---7-7---7-7-7-7-6---6-6--9---9-9-9-9--9-9-9-9-11---11-11-:
Ab:-4---4---4-4---4-4-4-4-4---4-4--7---7-7-7-7--7-7-7-7--7----7--7-:
Db:-4---4---4-4---4-4-4-4-4---4-4--7---7-7-7-7--7-7-7-7--7----7--7-:

Eb:----------------------------------------------------------------:
Bb:-5--5-5-5-5-5----5-5-5-5-5-5-5----------------------------------:
Gb:-x--x-x-x-x-x----x-x-x-x-x-x-x----------------------------------:
Db:-4--4-4-4-4-4----4-4-4-4-4-4-4--6---6-6-6-6-6---6-6-6-6-4-------:
Ab:-0--0-0-0-0-0----0-0-0-0-0-0-0--2---2-2-2-2-2---2-2-2-2-0-------:
Db:-0--0-0-0-0-0----0-0-0-0-0-0-0--2---2-2-2-2-2---2-2-2-2-0-------:

Verse 

Eb:----------------------------------------------------------------:
Bb:----------------------------------------------------------------:
Gb:------------------------------------------------------9-9-9-9---:
Db:-7----7-7-7-7----7-7-7-7-7-7-7--7----7-7-7-7----7-7-7-7-7-7-7---:
Ab:-4----4-4-4-4----4-4-4-4-4-4-4--4----4-4-4-4----4-4-4-7-7-7-7---:
Db:-4----4-4-4-4----4-4-4-4-4-4-4--4----4-4-4-4----4-4-4-7-7-7-7---:

Eb:----------------------------------------------------------------:
Bb:----------------------------------------------------------------:
Gb:--------------------------------4----4-4-4-4----4-4-4-4-4-4-4---:
Db:-4----4-4-4-4----4-4-4-4-4-4-4--6----6-6-6-6----6-6-6-6-6-6-6---:
Ab:-0----0-0-0-0----0-0-0-0-0-0-0--2----2-2-2-2----2-2-2-2-2-2-2---:
Db:-0----0-0-0-0----0-0-0-0-0-0-0--2----2-2-2-2----2-2-2-2-2-2-2---:

Eb:----------------------------------------------------------------:
Bb:----------------------------------------------------------------:
Gb:-9----9-9-9-9----9-9-9-9-9-9-9--9----9-9-9-9----9-9-9-----------:
Db:-7----7-7-7-7----7-7-7-7-7-7-7--7----7-7-7-7----7-7-7-7--7-7----:
Ab:-7----7-7-7-7----7-7-7-7-7-7-7--7----7-7-7-7----7-7-7-4--4-4----:
Db:-7----7-7-7-7----7-7-7-7-7-7-7--7----7-7-7-7----7-7-7-4--4-4----:

Eb:----------------------------------------------------------------:
Bb:----------------------------------------------------------------:
Gb:--------------------------------4----4-4-4-4----4-4-4-4-4-4-4---:
Db:-4----4-4-4-4----4-4-4-4-4-4-4--6----6-6-6-6----6-6-6-6-6-6-6---:
Ab:-0----0-0-0-0----0-0-0-0-0-0-0--2----2-2-2-2----2-2-2-2-2-2-2---:
Db:-0----0-0-0-0----0-0-0-0-0-0-0--2----2-2-2-2----2-2-2-2-2-2-2---:

PreChorus

Eb:----------------------------------------------------------------:
Bb:-5----5-5-5-5----5-5-5-5-5-5-5----------------------------------:
Gb:-x----x-x-x-x----x-x-x-x-x-x-x----------------------------------:
Db:-4----4-4-4-4----4-4-4-4-4-4-4--6----6-6-6-6----6-6-6-6-6-6-6---:
Ab:-0----0-0-0-0----0-0-0-0-0-0-0--2----2-2-2-2----2-2-2-2-2-2-2---:
Db:-0----0-0-0-0----0-0-0-0-0-0-0--2----2-2-2-2----2-2-2-2-2-2-2---:

Eb:----------------------------------------------------------------:
Bb:----------------------------------------------------------------:
Gb:--------------------------------9----9-9-9----------------------:
Db:-7----7-7-7-7----7-7-7-7-7-7-7--7----7-7-7-6----6-6-6-6-6-6-6---:
Ab:-4----4-4-4-4----4-4-4-4-4-4-4--7----7-7-7-2----2-2-2-2-2-2-2---:
Db:-4----4-4-4-4----4-4-4-4-4-4-4--7----7-7-7-2----2-2-2-2-2-2-2---:

Eb:----------------------------------------------------------------:
Bb:-5----5-5-5-5----5-5-5-5-5-5-5----------------------------------:
Gb:-x----x-x-x-x----x-x-x-x-x-x-x----------------------------------:
Db:-4----4-4-4-4----4-4-4-4-4-4-4--6----6-6-6-6----6-6-6-6-6-6-6---:
Ab:-0----0-0-0-0----0-0-0-0-0-0-0--2----2-2-2-2----2-2-2-2-2-2-2---:
Db:-0----0-0-0-0----0-0-0-0-0-0-0--2----2-2-2-2----2-2-2-2-2-2-2---:

Eb:----------------------------------------------------------------:
Bb:----------------------------------------------------------------:
Gb:--------------------------------9----9-9-9----------------------:
Db:-7----7-7-7-7----7-7-7-7-7-7-7--7----7-7-7-6----6-6-6-6-6-6-6---:
Ab:-4----4-4-4-4----4-4-4-4-4-4-4--7----7-7-7-2----2-2-2-2-2-2-2---:
Db:-4----4-4-4-4----4-4-4-4-4-4-4--7----7-7-7-2----2-2-2-2-2-2-2---:

Eb:----------------------------------------------------------------:
Bb:-5----5-5-5-5----5-5-5-5-5-5-5----------------------------------:
Gb:-x----x-x-x-x----x-x-x-x-x-x-x----------------------------------:
Db:-4----4-4-4-4----4-4-4-4-4-4-4--6----6-6-6-6----6-6-6-6-6-6-6---:
Ab:-0----0-0-0-0----0-0-0-0-0-0-0--2----2-2-2-2----2-2-2-2-2-2-2---:
Db:-0----0-0-0-0----0-0-0-0-0-0-0--2----2-2-2-2----2-2-2-2-2-2-2---:

Chorus  Repeat 2x

Eb:----------------------------------------------------------------:
Bb:--------------------------------5----5-5-5-5----5-5-5-5-5-5-5---:
Gb:--------------------------------x----x-x-x-x----x-x-x-x-x-x-x---:
Db:-7----7-7-7-7----7-7-7-7-7-7-7--4----4-4-4-4----4-4-4-4-4-4-4---:
Ab:-4----4-4-4-4----4-4-4-4-4-4-4--0----0-0-0-0----0-0-0-0-0-0-0---:
Db:-4----4-4-4-4----4-4-4-4-4-4-4--0----0-0-0-0----0-0-0-0-0-0-0---:

Eb:----------------------------------------------------------------:
Bb:----------------------------------------------------------------:
Gb:-9----9-9-9-9----9-9-9-9-9-9-9--4----4-4-4-4----4-4-4-4-4-4-4---:
Db:-9----9-9-9-9----9-9-9-9-9-9-9--6----6-6-6-6----6-6-6-6-6-6-6---:
Ab:-7----7-7-7-7----7-7-7-7-7-7-7--2----2-2-2-2----2-2-2-2-2-2-2---:
Db:-7----7-7-7-7----7-7-7-7-7-7-7--2----2-2-2-2----2-2-2-2-2-2-2---:

PostChorus

Eb:----------------------------------------------------------------:
Bb:----------------------------------------------------------------:
Gb:--------------------------------9-----(9)----9------------------:
Db:-7----7-7---7---7-7----7-7-7-7--9-----11-----7---------x--4-----:
Ab:-4----4-4---4---4-4----4-4-4-4--7------7-----0---------x--0-----:
Db:-4----4-4---4---4-4----4-4-4-4--7------7-----0---------x--0-----:


Repeat Verse Through PostChorus

Bridge

Eb:----------------------------------------------------------------:
Bb:--------------------------------5----5-5-5-5----5-5-5-5-5-5-5---:
Gb:--------------------------------x----x-x-x-x----x-x-x-x-x-x-x---:
Db:-7----7-7-7-7----7-7-7-7-7-7-7--4----4-4-4-4----4-4-4-4-4-4-4---:
Ab:-4----4-4-4-4----4-4-4-4-4-4-4--0----0-0-0-0----0-0-0-0-0-0-0---:
Db:-4----4-4-4-4----4-4-4-4-4-4-4--0----0-0-0-0----0-0-0-0-0-0-0---:

Eb:----------------------------------------------------------------:
Bb:--------------------------------5----5-5-5-5----5-5-5-5-5-5-5---:
Gb:--------------------------------x----x-x-x-x----x-x-x-x-x-x-x---:
Db:-6----6-6-6-6----6-6-6-6-6-6-6--4----4-4-4-4----4-4-4-4-4-4-4---:
Ab:-2----2-2-2-2----2-2-2-2-2-2-2--0----0-0-0-0----0-0-0-0-0-0-0---:
Db:-2----2-2-2-2----2-2-2-2-2-2-2--0----0-0-0-0----0-0-0-0-0-0-0---:

Eb:----------------------------------------------------------------:
Bb:--------------------------------5----5-5-5-5----5-5-5-5-5-5-5---:
Gb:--------------------------------x----x-x-x-x----x-x-x-x-x-x-x---:
Db:-7----7-7-7-7----7-7-7-7-7-7-7--4----4-4-4-4----4-4-4-4-4-4-4---:
Ab:-4----4-4-4-4----4-4-4-4-4-4-4--0----0-0-0-0----0-0-0-0-0-0-0---:
Db:-4----4-4-4-4----4-4-4-4-4-4-4--0----0-0-0-0----0-0-0-0-0-0-0---:

Eb:--------------------------------:
Bb:--------------------------------:
Gb:--------------------------------:
Db:-6----6-6-6-6----6-6-6-6-6-6-6--:
Ab:-2----2-2-2-2----2-2-2-2-2-2-2--:
Db:-2----2-2-2-2----2-2-2-2-2-2-2--:

Repeat Chorus 3x

Outro

Eb:----------------------------------------------------------------:
Bb:------------------------------------------0---------------------:
Gb:-------------6p7------6----------------------------6------------:
Db:------7------4--------4----------7------------------------------:
Ab:-4--------------------------------------------------------------:
Db:---4-----4--------------------4-----4---------------------------:

Eb:----------------------------------------------------------------:
Bb:----------------------------------------------------------------:
Gb:-------------6p7------6-----------------------------------------:
Db:------7------4--------4----------6--------7--------6------7-----:
Ab:----------------------------------------------------------4-----:
Db:---0-----0--------------------2-----2---------------------4-----:
Tap to rate this tab
 
# A B C D E F G H I J K L M N O P Q R S T U V W X Y Z