Song name
# A B C D E F G H I J K L M N O P Q R S T U V W X Y Z

Breaking Benjamin - The Diary Of Jane tab

Help us improve GuitareTab! Take a short survey!
The Diary Of Jane
by Breaking Benjamin
Tabs by wan, 12 Jan 2007 5.41pm
http://taktau.me.uk

Standard tuning (E A d g b e)

intro
A#/F#
|------------------------------|-------------------------------|
|------------------------------|----------------9--------------|
|----10----10----10---10---11--|---- 10----10--------11----10--|  x3
|-8-----8-----8----8----8------|--8-----8----8----8----8-------|
|------------------------------|-------------------------------|
|------------------------------|-------------------------------|

A#
|----------------------------|
|--------------9-------------|
|-- -10---10--------11---10--| x3
|-8----8----8----8----8------|
|----------------------------|
|----------------------------|

A#                F~
|----------------------------|
|----------------------------|
|-----10---10----10~~~~~~~---| 
|--8----8----8---------------|
|----------------------------|
|----------------------------|

A#                                            C~
|----------------------------|----------------------------|
|--------------9-------------|----------------------------|
|-- -10---10--------11---10--|-----10---10----------------|  x2
|-8----8----8----8----8------|--8----8----8----10~~~~~~~--|
|----------------------------|----------------------------|
|----------------------------|----------------------------|


A#(pm)
If I had to
I would put myself right beside you
So let me ask
            D#
Would you like that?
A#(pm)    F
Would you like that?


A#(pm)
And I don't mind
If you say this love is the last time
So now I'll ask
         D#
Do you like that?
A#(pm) F
Do you like that?


A#
No
                           F#
Something's getting in the way
                          C#
Something's just about to break
                      G#                    F#
I will try to find my place in the diary of Jane
           G#
So tell me how it should be


A#                                            C~
|----------------------------|----------------------------|
|--------------9-------------|----------------------------|
|-- -10---10--------11---10--|-----10---10----------------|
|-8----8----8----8----8------|--8----8----8----10~~~~~~~--|
|----------------------------|----------------------------|
|----------------------------|----------------------------|


A#(pm)
Try to find out what makes you tick
As I lie down
Sore and sick
       D#
Do you like that?
A#(pm) F
Do you like that?


A#(pm)
There's a fine line between love and hate
And I don't mind
                       D#
Just let me say that I like that
A#(pm) F
I like that


A#                         F#
Something's getting in the way
                          C#
Something's just about to break
                      G#                    A#
I will try to find my place in the diary of Jane
                  F#
As I burn another page
                    C#
As I look the other way
                       G#                    F#
I still try to find my place in the diary of Jane
           G#
So tell me how it should be


Rhythm
A#         C#   A#        C# D#    x2

Lead
|---------------|--------------------|--------------|--------------------|
|--11-13--------|------------9-------|-11-13--------|-----------9-11~- --|
|--------13-----|--10---8-10---8-7---|-------13-----|--10--8-10----------|   
|---------------|------------------8-|--------------|--------------------|
|---------------|--------------------|--------------|--------------------|
|---------------|--------------------|--------------|--------------------|

Rhythm
F                   C#
Desperate, I will crawl
G#             C# D#
Waiting for so long
A#          C#  A#        C# D#
No love, there is no love

Lead
|---------------|--------------------|-9~--8-11~--9-11-9/8----|
|--11-13--------|------------9-------|--------------------11--|
|--------13-----|--10---8-10---8-7---|------------------------|  
|---------------|------------------8-|------------------------|
|---------------|--------------------|------------------------|
|---------------|--------------------|------------------------|

Rhythm
F           C#
Die for anyone
G#             C# D#
What have I become


A#                         F#
Something's getting in the way
                          C#
Something's just about to break
                      G#                    A#
I will try to find my place in the diary of Jane
                  F#
As I burn another page
                    C#
As I look the other way
                       G#                    A#
I still try to find my place in the diary of Jane


A#                                            C~
|----------------------------|----------------------------|
|--------------9-------------|----------------------------|
|-- -10---10--------11---10--|-----10---10----------------| x2
|-8----8----8----8----8------|--8----8----8----10~~~~~~~--|
|----------------------------|----------------------------|
|----------------------------|----------------------------|

Related for The Diary Of Jane tab