Song name
# A B C D E F G H I J K L M N O P Q R S T U V W X Y Z

Brian May - Driven By You tab

-------------------------------------------------------------------------------
			     DRIVEN BY YOU - Brian May
-------------------------------------------------------------------------------
Tabbed by: metallhead
Email: homesticky@gmail.com

Tuning: E A D G B E

Gtr I (E A D G B E) - 'Voice'
Gtr II (E A D G B E) - 'Guitar'
Gtr III (E A D G B E) - 'Solo'

  Q=140
 4/4
  Gtr I
   W                  W             W                  H     Q  Q
|------------------|-------------|------------------|-----------7---|
|------------------|-------------|------------------|---------------|
|------------------|-------------|------------------|---------------|
|------------------|-------------|------------------|---------------|
|------------------|-------------|------------------|---------------|
|------------------|-------------|------------------|---------------|
|
| Gtr II
|  Q  Q  Q  E  S S    Q  Q  H       Q  Q  Q  E  S S    Q  Q  H
|------------------|-------------|------------------|---------------|
|-12----------12---|-12----------|-12----------12---|-12------------|
|-12----------12---|-12----------|-12----------12---|-12------------|
|-12----------12---|-12----------|-12----------12---|-12------------|
|------------------|-------------|------------------|---------------|
|------------------|-------------|------------------|---------------|


   Q  Q       Q   S S  S S    S S S S S S  E   +S  S S S  S S  S S
|--7--------------7----7---|--8---7---7----7---(7)-----------------|
|--------------------------|-------------------------8---10---12---|
|--------------------------|---------------------------------------|
|--------------------------|---------------------------------------|
|--------------------------|---------------------------------------|
|--------------------------|---------------------------------------|
|
|  Q  E  S S  Q   S S  S S    Q       E    S S  Q         S S  S S
|--------------------------|---------------------------------------|
|--------------------------|---------------------------------------|
|-12----12---12--12---12---|-12-----------12---12--------12---12---|
|-12----12---12--12---12---|-12-----------12---12--------12---12---|
|-14----14---14--14---14---|-14-----------14---14--------14---14---|
|--------------------------|---------------------------------------|


   Q  Q       E  S S  S S  S S
|------------------------------|
|-12-----------------12---12---|
|------------------------------|
|---------------14-------------|
|------------------------------|
|------------------------------|
|
|  Q  E  S S  Q       S S  S S
|------------------------------|
|------------------------------|
|------------------------------|
|-14----14---14------14---14---|
|-14----14---14------14---14---|
|-15----15---15------15---15---|


   S S  E  +S  S  E    +E  E  Q
|--------------------------------------|
|-13---12-(12)---12---(12)---12--------|
|--------------------------------------|
|--------------------------------------|
|--------------------------------------|
|--------------------------------------|
|
|  Q        E     S S   Q     S S  S S
|--------------------------------------|
|--------------------------------------|
|--------------------------------------|
|-14-------------14----14----14---14---|
|-14-------------14----14----14---14---|
|-15-------------15----15----15---15---|


   S S  S S Q       Q   S S  S S    Q  E  S S  Q   Q
|--------------------------------|-----------------7--------|
|-12---10---8-----------8--------|--8----------8------------|
|----------------------------9---|--------9-----------------|
|--------------------------------|--------------------------|
|--------------------------------|--------------------------|
|--------------------------------|--------------------------|
|
|  Q        E  S S  Q   S S  S S    Q  E  S S  Q   S S  S S
|--------------------------------|--------------------------|
|--------------------------------|--------------------------|
|-12----------12---12--12---12---|-12----12---12--12---12---|
|-14----------14---14--14---14---|-14----14---14--14---14---|
|-15----------15---15--15---15---|-15----15---15--15---15---|
|--------------------------------|--------------------------|


   S S E +S  S E H            H      Q   Q
|--7-5-3-(3)---------------|---------3---7--|
|--------------------------|----------------|
|--------------------------|----------------|
|--------------------------|----------------|
|--------------------------|----------------|
|--------------------------|----------------|
|
|  Q      Q      Q  E  S S    Q  Q   Q   Q
|--------------------------|----------------|
|-12------------------12---|-12-------------|
|-12------------------12---|-12---------12--|
|-12------------------12---|-12-----12--12--|
|--------------------------|--------14--14--|
|--------------------------|--------15------|


   Q         Q         E    S S  S S  S S
|--7------------------------7----7----7---|
|-----------------------------------------|
|-----------------------------------------|
|-----------------------------------------|
|-----------------------------------------|
|-----------------------------------------|
|
|  S S  S S  S S  S S  S S  S S  S S  S S
|-----------------------------------------|
|-----------------------------------------|
|-12---12---12---12---12---12---12---12---|
|-12---12---12---12---12---12---12---12---|
|-14---14---14---14---14---14---14---14---|
|-----------------------------------------|


   S S  S S  S S  S S  E    S S  Q
|--8----7----7----7--------------7--------|
|---------------------------8-------------|
|-----------------------------------------|
|-----------------------------------------|
|-----------------------------------------|
|-----------------------------------------|
|
|  S S  S S  S S  S S  S S  S S  S S  S S
|-----------------------------------------|
|-----------------------------------------|
|-12---12---12---12---12---12---12---12---|
|-12---12---12---12---12---12---12---12---|
|-14---14---14---14---14---14---14---14---|
|-----------------------------------------|


   Q         Q         E    S S  S S  S S
|--7-----------------------15---15---14---|
|-----------------------------------------|
|-----------------------------------------|
|-----------------------------------------|
|-----------------------------------------|
|-----------------------------------------|
|
|  S S  S S  S S  S S  S S  S S  S S  S S
|-----------------------------------------|
|-----------------------------------------|
|-----------------------------------------|
|-14---14---14---14---14---14---14---14---|
|-14---14---14---14---14---14---14---14---|
|-15---15---15---15---15---15---15---15---|


   S S  E    +S  S  E    +S  S  E    Q
|-14---12---(12)---12---(12)------------------|
|-----------------------------------12--------|
|---------------------------------------------|
|---------------------------------------------|
|---------------------------------------------|
|---------------------------------------------|
|
|  S S  S S   S  S  S S   S  S  S S  S S  S S
|---------------------------------------------|
|---------------------------------------------|
|---------------------------------------------|
|-14---14----14----14----14----14---14---14---|
|-14---14----14----14----14----14---14---14---|
|-15---15----15----15----15----15---15---15---|


   S S  S S  Q         Q         S S  S S
|-----------------------------------------|
|-12---10-8----------------------8--------|
|-------------------------------------9---|
|-----------------------------------------|
|-----------------------------------------|
|-----------------------------------------|
|
|  S S  S S  S S  S S  S S  S S  S S  S S
|-----------------------------------------|
|-----------------------------------------|
|-12---12---12---12---12---12---12---12---|
|-14---14---14---14---14---14---14---14---|
|-15---15---15---15---15---15---15---15---|
|-----------------------------------------|


   S S  S S  E    S S  Q         Q           S S E +S  S E H
|--------------------------------7--------|--5---3-(3)---------------|
|--8--------------8----8------------------|--------------------------|
|-------9---------------------------------|--------------------------|
|-----------------------------------------|--------------------------|
|-----------------------------------------|--------------------------|
|-----------------------------------------|--------------------------|
|
|  S S  S S  S S  S S  S S  S S  S S  S S    Q      Q      Q  E  S S
|-----------------------------------------|--------------------------|
|-----------------------------------------|-12------------------12---|
|-12---12---12---12---12---12---12---12---|-12------------------12---|
|-14---14---14---14---14---14---14---14---|-12------------------12---|
|-15---15---15---15---15---15---15---15---|--------------------------|
|-----------------------------------------|--------------------------|


  Q      E  E    +S  S  S S  S S  S S
|----------15---(15)---15---15---15---|
|-------------------------------------|
|-------------------------------------|
|-------------------------------------|
|-------------------------------------|
|-------------------------------------|
|
| E  S S E  S S   S  S  S S  S S  S S
|-------------------------------------|
|---12-----12----12----12---12---12---|
|---12-----12----12----12---12---12---|
|---12-----12----12----12---12---12---|
|-------------------------------------|
|-------------------------------------|


   S S  S S  S S  S S   S  S  E  +S  S  S S
|-15---14---14---14----14----14-(14)---14---|
|-------------------------------------------|
|-------------------------------------------|
|-------------------------------------------|
|-------------------------------------------|
|-------------------------------------------|
|
|  H                   +Q         Q
|-------------------------------------------|
|-10------------------(10)------------------|
|-11------------------(11)------------------|
|-12------------------(12)------------------|
|-------------------------------------------|
|-------------------------------------------|


   S S  S S  Q    E   S S  S S  E
|-15---14---14-------14---14---17-|
|---------------------------------|
|---------------------------------|
|---------------------------------|
|---------------------------------|
|---------------------------------|
|
|  H             +Q        Q
|---------------------------------|
|-10------------(10)--------------|
|-11------------(11)--------------|
|-10------------(10)--------------|
|---------------------------------|
|---------------------------------|


                                               2/4
   +S  S  S S  S S  S S   S  S  S S  S S  S S    S S  E  +S  S  S  S
|-(17)---15---15---14----15----14---15---14---|-15--------------------|
|---------------------------------------------|------15-(15)---15-17--|
|---------------------------------------------|-----------------------|
|---------------------------------------------|-----------------------|
|---------------------------------------------|-----------------------|
|---------------------------------------------|-----------------------|
|
|   H                    +Q          Q           S S  E  +S  S  S  S
|---------------------------------------------|-----------------------|
|--12-------------------(12)------------------|-12--------------------|
|--12-------------------(12)------------------|-12---12-(12)---12-----|
|--12-------------------(12)------------------|-12---12-(12)---14-----|
|---------------------------------------------|------14-(14)---15-----|
|---------------------------------------------|-----------------------|


 4/4
   +H       +S  S  E  +E     E
|-----------------15-(15)--------|
|-(17)-----(17)------------------|
|--------------------------------|
|--------------------------------|
|--------------------------------|
|--------------------------------|
|
|   Q.   E   S  S  E  +S  S  S S
|--------------------------------|
|--------------------------------|
|--12-------12----12-(12)---14---|
|--14-------14----12-(12)---14---|
|--15-------15----14-(14)---15---|
|--------------------------------|


   Q   S  S  S S  S S  E  +S  S  S S    Q   E  S S  S S  S S  Q
|--------15-15---15---15-(15)---15---|-14----------15---15---15---|
|------------------------------------|--------15------------------|
|------------------------------------|----------------------------|
|------------------------------------|----------------------------|
|------------------------------------|----------------------------|
|------------------------------------|----------------------------|
|
|  Q.        E    S S  E  +S  S  S S    Q.     E    S S  S S  Q
|------------------------------------|----------------------------|
|-------------------------------15---|-15----------13---13---13---|
|-14-------------14---14-(14)---14---|-14----------12---12---12---|
|-14-------------14---14-(14)---16---|-16----------14---14---14---|
|-15-------------15---15-(15)--------|----------------------------|
|------------------------------------|----------------------------|


   S S  S  S  +E  E H            W             W                  H     Q   Q
|-15--------------------------|-------------|------------------|---------------|
|------17-15-(15)-------------|-------------|------------------|---------------|
|-----------------------------|-------------|------------------|-----------16--|
|-----------------------------|-------------|------------------|---------------|
|-----------------------------|-------------|------------------|---------------|
|-----------------------------|-------------|------------------|---------------|
|
|  Q           Q    Q  E  S S    Q  Q  H       Q  Q  Q  E  S S    Q  Q  H
|-----------------------------|-------------|------------------|---------------|
|-12---------------------12---|-12----------|-12----------12---|-12------------|
|-12---------------------12---|-12----------|-12----------12---|-12------------|
|-12---------------------12---|-12----------|-12----------12---|-12------------|
|-----------------------------|-------------|------------------|---------------|
|-----------------------------|-------------|------------------|---------------|


   Q  Q       E  S S  S S  S S    S S  S S  S S  E    +S  S  S S  S S  S S
|------------------------------|-------------------------------------------|
|------------------------------|-------------------------------------------|
|-16-----------------16---16---|-17---16---16---16---(16)------------------|
|---------------17-------------|----------------------------17---19---21---|
|------------------------------|-------------------------------------------|
|------------------------------|-------------------------------------------|
|
|  Q  E  S S  Q       S S  S S    Q         E    S S   Q          S S  S S
|------------------------------|-------------------------------------------|
|------------------------------|-------------------------------------------|
|-12----12---12------12---12---|-12-------------12----12---------12---12---|
|-12----12---12------12---12---|-12-------------12----12---------12---12---|
|-14----14---14------14---14---|-14-------------14----14---------14---14---|
|------------------------------|-------------------------------------------|


   Q  Q       E  S S  S S  S S
|--------------------------------|
|--------------------------------|
|--------------------------------|
|-21-----------------21---21-----|
|---------------19---------------|
|--------------------------------|
|
|  Q  E  S S  Q       S S  S S
|--------------------------------|
|--------------------------------|
|--------------------------------|
|-14----14---14------14---14-----|
|-14----14---14------14---14-----|
|-15----15---15------15---15-----|


   S S  E  +S  S  E    +E  E  Q
|--------------------------------------|
|--------------------------------------|
|--------------------------------------|
|-22---21-(21)---21---(21)---21--------|
|--------------------------------------|
|--------------------------------------|
|
|  Q        E     S S   Q     S S  S S
|--------------------------------------|
|--------------------------------------|
|--------------------------------------|
|-14-------------14----14----14---14---|
|-14-------------14----14----14---14---|
|-15-------------15----15----15---15---|


   S S  S S  Q       Q   S S  S S    Q  E  S S  Q   Q
|---------------------------------|--------------------------|
|---------------------------------|--------------------------|
|---------------------------------|----------------16--------|
|-21---19---17----------17--------|-17---------17------------|
|----------------------------19---|-------19-----------------|
|---------------------------------|--------------------------|
|
|  Q         E  S S  Q   S S  S S    Q  E  S S  Q   S S  S S
|---------------------------------|--------------------------|
|---------------------------------|--------------------------|
|-12-----------12---12--12---12---|-12----12---12--12---12---|
|-14-----------14---14--14---14---|-14----14---14--14---14---|
|-15-----------15---15--15---15---|-15----15---15--15---15---|
|---------------------------------|--------------------------|


   S  S  E  +S  S E H            H      Q   Q
|-----------------------------|----------------|
|-----------------------------|------------12--|
|-16-14-12-(12)---------------|--------12------|
|-----------------------------|----------------|
|-----------------------------|----------------|
|-----------------------------|----------------|
|
|  Q         Q      Q  E  S S    Q  Q   Q   Q
|-----------------------------|----------------|
|-12---------------------12---|-12-------------|
|-12---------------------12---|-12---------12--|
|-12---------------------12---|-12-----12--12--|
|-----------------------------|--------14--14--|
|-----------------------------|--------15------|


   Q         Q         E    S S  S S  S S
|-----------------------------------------|
|-12-----------------------12---12---12---|
|-----------------------------------------|
|-----------------------------------------|
|-----------------------------------------|
|-----------------------------------------|
|
|  S S  S S  S S  S S  S S  S S  S S  S S
|-----------------------------------------|
|-----------------------------------------|
|-12---12---12---12---12---12---12---12---|
|-12---12---12---12---12---12---12---12---|
|-14---14---14---14---14---14---14---14---|
|-----------------------------------------|


   S S  S S  S S  S S  E    S S  Q
|-----------------------------------------|
|-13---12---12---12-------------12--------|
|--------------------------12-------------|
|-----------------------------------------|
|-----------------------------------------|
|-----------------------------------------|
|
|  S S  S S  S S  S S  S S  S S  S S  S S
|-----------------------------------------|
|-----------------------------------------|
|-12---12---12---12---12---12---12---12---|
|-12---12---12---12---12---12---12---12---|
|-14---14---14---14---14---14---14---14---|
|-----------------------------------------|


   Q         Q         E    S S  S S  S S
|--------------------------15---15---14---|
|-12--------------------------------------|
|-----------------------------------------|
|-----------------------------------------|
|-----------------------------------------|
|-----------------------------------------|
|
|  S S  S S  S S  S S  S S  S S  S S  S S
|-----------------------------------------|
|-----------------------------------------|
|-----------------------------------------|
|-14---14---14---14---14---14---14---14---|
|-14---14---14---14---14---14---14---14---|
|-15---15---15---15---15---15---15---15---|


   S S  E    +S  S  E    +S  S  E    Q
|-14---12---(12)---12---(12)------------------|
|-----------------------------------12--------|
|---------------------------------------------|
|---------------------------------------------|
|---------------------------------------------|
|---------------------------------------------|
|
|  S S  S S   S  S  S S   S  S  S S  S S  S S
|---------------------------------------------|
|---------------------------------------------|
|---------------------------------------------|
|-14---14----14----14----14----14---14---14---|
|-14---14----14----14----14----14---14---14---|
|-15---15----15----15----15----15---15---15---|


   S S  S S  Q         Q         S S  S S
|-----------------------------------------|
|-12---10-8----------------------8--------|
|-------------------------------------9---|
|-----------------------------------------|
|-----------------------------------------|
|-----------------------------------------|
|
|  S S  S S  S S  S S  S S  S S  S S  S S
|-----------------------------------------|
|-----------------------------------------|
|-12---12---12---12---12---12---12---12---|
|-14---14---14---14---14---14---14---14---|
|-15---15---15---15---15---15---15---15---|
|-----------------------------------------|


   S S  S S  E    S S  Q         Q           S S E +S  S E H
|--------------------------------7--------|--5---3-(3)---------------|
|--8--------------8----8------------------|--------------------------|
|-------9---------------------------------|--------------------------|
|-----------------------------------------|--------------------------|
|-----------------------------------------|--------------------------|
|-----------------------------------------|--------------------------|
|
|  S S  S S  S S  S S  S S  S S  S S  S S    Q      Q      Q  E  S S
|-----------------------------------------|--------------------------|
|-----------------------------------------|-12------------------12---|
|-12---12---12---12---12---12---12---12---|-12------------------12---|
|-14---14---14---14---14---14---14---14---|-12------------------12---|
|-15---15---15---15---15---15---15---15---|--------------------------|
|-----------------------------------------|--------------------------|


  Q      E  E    +S  S  S S  S S  S S
|----------15---(15)---15---15---15---|
|-------------------------------------|
|-------------------------------------|
|-------------------------------------|
|-------------------------------------|
|-------------------------------------|
|
| E  S S E  S S   S  S  S S  S S  S S
|-------------------------------------|
|---12-----12----12----12---12---12---|
|---12-----12----12----12---12---12---|
|---12-----12----12----12---12---12---|
|-------------------------------------|
|-------------------------------------|


   S S  S S  S S  S S   S  S  E  +S  S  S S
|-15---14---14---14----14----14-(14)---14---|
|-------------------------------------------|
|-------------------------------------------|
|-------------------------------------------|
|-------------------------------------------|
|-------------------------------------------|
|
|  H                   +Q         Q
|-------------------------------------------|
|-10------------------(10)------------------|
|-11------------------(11)------------------|
|-12------------------(12)------------------|
|-------------------------------------------|
|-------------------------------------------|


   S S  S S  Q    E   S S  S S  E
|-15---14---14-------14---14---17-|
|---------------------------------|
|---------------------------------|
|---------------------------------|
|---------------------------------|
|---------------------------------|
|
|  H             +Q        Q
|---------------------------------|
|-10------------(10)--------------|
|-11------------(11)--------------|
|-10------------(10)--------------|
|---------------------------------|
|---------------------------------|


                                               2/4
   +S  S  S S  S S  S S   S  S  S S  S S  S S    S S  E  +S  S  S  S
|-(17)---15---15---14----15----14---15---14---|-15--------------------|
|---------------------------------------------|------15-(15)---15-17--|
|---------------------------------------------|-----------------------|
|---------------------------------------------|-----------------------|
|---------------------------------------------|-----------------------|
|---------------------------------------------|-----------------------|
|
|   H                    +Q          Q           S S  E  +S  S  S  S
|---------------------------------------------|-----------------------|
|--12-------------------(12)------------------|-12--------------------|
|--12-------------------(12)------------------|-12---12-(12)---12-----|
|--12-------------------(12)------------------|-12---12-(12)---14-----|
|---------------------------------------------|------14-(14)---15-----|
|---------------------------------------------|-----------------------|


 4/4
   H       +S  S  E  +E     E
|----------------15-(15)--------|
|-17------(17)------------------|
|-------------------------------|
|-------------------------------|
|-------------------------------|
|-------------------------------|
|
|  Q.   E   S  S  E  +S  S  S S
|-------------------------------|
|-------------------------------|
|-12-------12----12-(12)---14---|
|-14-------14----12-(12)---14---|
|-15-------15----14-(14)---15---|
|-------------------------------|


   Q   S  S  S S  S S  E  +S  S  S S    Q   E  S S  S S  S S  Q
|--------15-15---15---15-(15)---15---|-14----------15---15---15---|
|------------------------------------|--------15------------------|
|------------------------------------|----------------------------|
|------------------------------------|----------------------------|
|------------------------------------|----------------------------|
|------------------------------------|----------------------------|
|
|  Q.        E    S S  E  +S  S  S S    Q.     E    S S  S S  Q
|------------------------------------|----------------------------|
|-------------------------------15---|-15----------13---13---13---|
|-14-------------14---14-(14)---14---|-14----------12---12---12---|
|-14-------------14---14-(14)---16---|-16----------14---14---14---|
|-15-------------15---15-(15)--------|----------------------------|
|------------------------------------|----------------------------|


   S  S  S S  S S  S S  S S  S S  S S  S S    Q   S S  S S  S S  E  +S  S  S S
|-15---------------------------------------|-----15---15---15---19-(19)--------|
|----17-15---15---15---15---15---17---17---|------------------------------20---|
|------------------------------------------|-----------------------------------|
|------------------------------------------|-----------------------------------|
|------------------------------------------|-----------------------------------|
|------------------------------------------|-----------------------------------|
|
|  Q          S S  S S  S S  S S  S S  S S    Q   S S  S S  S S  E  +S  S  S S
|------------------------------------------|-----------------------------------|
|-12---------12---12---12---12---13---13---|-13--------------------------------|
|-12---------12---12---12---12---12---12---|-12--12---12---12---16-(16)---12---|
|-12---------12---12---12---12---14---14---|-14--14---14---14---14-(14)---12---|
|------------------------------------------|-----15---15---15---15-(15)---14---|
|------------------------------------------|-----------------------------------|


   S  S E  S S  S S  S S  S S  S S  S S    Q   S S  S S  S S  E  +S  S  S S
|---------------------------------------|-----19--------19---19-(19)---17---|
|-----------------------------17---17---|----------20-----------------------|
|-21-19---19---19---19---19-------------|-----------------------------------|
|---------------------------------------|-----------------------------------|
|---------------------------------------|-----------------------------------|
|---------------------------------------|-----------------------------------|
|
|  Q       S S  S S  S S  S S  S S  S S    Q   S S  S S  S S  E  +S  S  S S
|---------------------------------------|-----------------------------------|
|---------12---12---12---12---13---13---|-13--12--------12---12-(12)--------|
|-12------12---12---12---12---12---12---|-12--12---14---12---12-(12)---14---|
|-12------12---12---12---12---14---14---|-14--14---14---14---12-(12)---14---|
|-14------------------------------------|------------------------------15---|
|---------------------------------------|-----------------------------------|


   S S  S  S  S S  S S  S S  E  +S  S  S S
|-17---15----15---15---15---15-(15)---15---|
|---------17-------------------------------|
|------------------------------------------|
|------------------------------------------|
|------------------------------------------|
|------------------------------------------|
|
|  Q          S S  S S  S S  E  +S  S  S S
|------------------------------------------|
|------------------------------------------|
|-14---------12---12---12---12-(12)---12---|
|-14---------14---14---14---14-(14)---14---|
|-15---------15---15---15---15-(15)---15---|
|------------------------------------------|


   Q   E  S S  S S  S S  Q     Q  Q        H
|-14-----12---15--------15--|--------------------|
|------------------17-------|--------------------|
|---------------------------|--------------------|
|---------------------------|-17-----------------|
|---------------------------|--------------------|
|---------------------------|--------------------|
|
|  Q   Q       Q         Q     Q  E  S  S  Q  Q
|---------------------------|--------------------|
|---------------------------|-12----12-12-12-----|
|-11--11------12--------12--|--------------------|
|-12--12------14--------14--|-12----12-12-12-----|
|-12--12------15--------15--|-14----14-14-14-----|
|---------------------------|--------------------|


   W                            S S  E  +S  S  E  +S  S  E  +S  S  S S
|----------------------------|-----------------------------------------|
|----------------------------|-----------------------------------------|
|----------------------------|-16---16-(16)---16-(16)---16-(16)---16---|
|----------------------------|-----------------------------------------|
|----------------------------|-----------------------------------------|
|----------------------------|-----------------------------------------|
|
|  S S  E  +S  S  S S  Q  Q     H                 +Q         Q
|----------------------------|-----------------------------------------|
|-12---10-(10)----8----8--8--|--7-----------------(7)------------------|
|-12---11-(11)----9----9--9--|--8-----------------(8)------------------|
|-12---12-(12)---10---10--9--|--9-----------------(9)------------------|
|----------------------------|-----------------------------------------|
|----------------------------|-----------------------------------------|


   S S  E  +S  S  E  +E  E Q
|------------------------------|
|------------------------------|
|-17---16-(16)---16-(16)-------|
|------------------------------|
|------------------------------|
|------------------------------|
|
|  H                 +Q    Q
|--5-----------------(5)-------|
|--7-----------------(7)-------|
|--8-----------------(8)-------|
|--9-----------------(9)-------|
|------------------------------|
|------------------------------|


   Q   S S  E  +S  S  S S E  S S
|--------------------------------|
|--------------------------------|
|-14--12---12-(12)---11-----12---|
|--------------------------------|
|--------------------------------|
|--------------------------------|
|
|  H           +Q         Q
|--3-----------(3)---------------|
|--5-----------(5)---------------|
|--5-----------(5)---------------|
|--------------------------------|
|--------------------------------|
|--------------------------------|


   S S S S S S E +E  E E S S   Q  S S E   +S  S E +S  S S S
|----------------------------|------------------7-(7)---7---|
|-10---8---8---8-(8)---------|----8---8---(8)---------------|
|------------------------9---|-7----------------------------|
|----------------------------|------------------------------|
|----------------------------|------------------------------|
|----------------------------|------------------------------|
|
|  H             +Q    Q       Q  S S S S  S  S E +S  S S S
|--3-------------(3)---------|----3---3----3----7-(7)---7---|
|--5-------------(5)---------|-3--3---3----3----8-(8)---8---|
|--5-------------(5)---------|-4--4---4----4----7-(7)---7---|
|--7-------------(7)---------|-5----------------------------|
|----------------------------|------------------------------|
|----------------------------|------------------------------|


  S S  E  +S  S  E    +S  S E E  S S    Q   S S  E    +S  S  E  +S  S  S S
|-7---10-(10)---10---(10)-------10---|-15--14---14---(14)-------------15---|
|------------------------------------|----------------------15-(15)--------|
|------------------------------------|-------------------------------------|
|------------------------------------|-------------------------------------|
|------------------------------------|-------------------------------------|
|------------------------------------|-------------------------------------|
|
| S S  E  +S  S  S S   Q      E  S S    Q   S S  S S   S  S  E  +S  S  S S
|-7---10-(10)---10----10-------------|-------------------------------------|
|-8---12-(12)---12----12-------------|-12--10---10----10----10-(10)---12---|
|-7---12-(12)---12----12-------------|-12--11---11----11----11-(11)---12---|
|-------------------------------12---|-12--12---12----12--------------12---|
|------------------------------------|-------------------------------------|
|------------------------------------|-------------------------------------|


   E    E  +S  S  E    +S  S E Q
|------14-(14)---14---(14)------------|
|-------------------------------------|
|-------------------------------------|
|-------------------------------------|
|-------------------------------------|
|-------------------------------------|
|
|  S S  E  +S  S  S S   Q      E  S S
|-------------------------------------|
|-12---10-(10)---10----10-------------|
|-12---11-(11)---11----11--------11---|
|-12---12-(12)---12----12--------13---|
|--------------------------------14---|
|-------------------------------------|


  Gtr II
   S S  S S   S  S  S S  S S  S S  S S  S S
|-------------------------------------------|
|-------------------------------------------|
|-11---11----11----11---11---11---11---11---|
|-13---13----13----13---13---13---13---13---|
|-14---14----14----14---14---14---14---14---|
|-------------------------------------------|
|
| Gtr III
|  Q         +S  S  E    Q         S S  S S
|-15--------(15)----------------------------|
|-12--------(12)------------------11---12---|
|-------------------------------------------|
|-------------------------------------------|
|-------------------------------------------|
|-------------------------------------------|


   S S  S S  S  S  S  S  S  S  S  S  S S  S  S
|----------------------------------------------|
|-10---10---10----10----10----10----10---10----|
|-11---11---11----11----11----11----11---11----|
|-13---13---13----13----13----13----13---13----|
|-14---14---14----14----14----14----14---14----|
|----------------------------------------------|
|
|  Q         S  S  S  S  S  S  S  S  E    S  S
|----------------------------------------------|
|-13--------12-13----12-10-12----10-12------10-|
|----------------------------------------------|
|----------------------------------------------|
|----------------------------------------------|
|----------------------------------------------|


   S S  S S  S S  S S  S S  S S  S S  S S
|-----------------------------------------|
|--8----8----8----8----8----8----8----8---|
|--9----9----9----9----9----9----9----9---|
|-10---10---10---10---10---10---10---10---|
|-----------------------------------------|
|-----------------------------------------|
|
|  Q         S S  S S  Q         S S  S S
|-----------------------------------------|
|-10---------8----8----8---------7----8---|
|-----------------------------------------|
|-----------------------------------------|
|-----------------------------------------|
|-----------------------------------------|


   S S  S S  S S  S S  S S  S S  S S  S S
|-----------------------------------------|
|--8----8----8----8----8----8----8----8---|
|--9----9----9----9----9----9----9----9---|
|-11---11---11---11---11---11---11---11---|
|-12---12---12---12---12---12---12---12---|
|-----------------------------------------|
|
|  Q         S S  S S  Q         S S  S S
|-----------------------------------------|
|-10---------8----8----8---------7----5---|
|-----------------------------------------|
|-----------------------------------------|
|-----------------------------------------|
|-----------------------------------------|


  S S S S S S S S S S S S S S S S   S S S S  S S  S S  S S S S  S S  S S
|---------------------------------|--------------------------------------|
|-8---8---8---8---8---8---8---8---|-8---8----8----8----8---8----8----8---|
|-7---7---7---7---7---7---7---7---|-7---7----7----7----7---7----7----7---|
|-9---9---9---9---9---9---9---9---|-9---9----9----9----9---9----9----9---|
|---------------------------------|--------------------------------------|
|---------------------------------|--------------------------------------|
|
| Q       E   S S Q       S S S S   Q        S S  S S  Q        S S  S S
|-------------3---3-------7---7---|-7-------10---10---10------------12---|
|-3-------------------------------|----------------------------12--------|
|---------------------------------|--------------------------------------|
|---------------------------------|--------------------------------------|
|---------------------------------|--------------------------------------|
|---------------------------------|--------------------------------------|


   S S S S  S  S  S  S  S S  S S   S  S  S S
|--5---5----5-----5-----5----5-----5-----5---|
|--8---8----8-----8-----8----8-----8-----8---|
|--5---5----5-----5-----5----5-----5-----5---|
|--------------------------------------------|
|--------------------------------------------|
|--------------------------------------------|
|
|  Q        S  S  S  S  S S  E    +S  S  S S
|-12-------12-15-----------------------------|
|----------------17-15-17---17---(17)---15---|
|--------------------------------------------|
|--------------------------------------------|
|--------------------------------------------|
|--------------------------------------------|


   S S S S  S  S  S  S  S  S  S  S  S  S  S S
|-----------------------------------------5---|
|--7---7----7-----7-----7-----7-----7-----5---|
|--7---7----7-----7-----7-----7-----7-----6---|
|--7---7----7-----7-----7-----7-----7---------|
|---------------------------------------------|
|---------------------------------------------|
|
|  Q        S  S  S  S  S  S  S  S  S  S  S S
|----------------------------------20-22------|
|-15-------------15-17-19-20-22-24------------|
|----------16-17------------------------------|
|---------------------------------------------|
|---------------------------------------------|
|----------------------------------------21---|


   S S  S S  S S  S S  S S  S S S S  S S
|--5----5----5----5----5----5---5----5---|
|--5----5----5----5----5----5---5----7---|
|--6----6----6----6----6----6---6----7---|
|----------------------------------------|
|----------------------------------------|
|----------------------------------------|
|
|  S S  S S  S S  S S  S S  S S E    S S
|----------------------------------------|
|----------------------------------------|
|----------------------------------------|
|----------------------------------------|
|----------------------------------------|
|-21---21---21---21---21---22-------22---|


   S S  S S  S S  S S  S S  S S S S  S S
|--5----5----5----5----5----5---5----5---|
|--7----7----7----7----7----7---7----5---|
|--7----7----7----7----7----7---7----6---|
|----------------------------------------|
|----------------------------------------|
|----------------------------------------|
|
|  S S  S S  S S  S S  S S  S S E    S S
|----------------------------------------|
|----------------------------------------|
|----------------------------------------|
|----------------------------------------|
|----------------------------------------|
|-22---22---22---22---22---24-------24---|


   S S  S S  S S  S S  S S  S S S S  S S
|--5----5----5----5----5----5---5----5---|
|--5----5----5----5----5----5---5----7---|
|--6----6----6----6----6----6---6----7---|
|----------------------------------------|
|----------------------------------------|
|----------------------------------------|
|
|  S S  S S  S S  S S  S S  S S E    S S
|----------------------------------------|
|----------------------------------------|
|----------------------------------------|
|----------------------------------------|
|--------------------------21-------21---|
|-24---24---24---24---24-----------------|


   S S  S S  S  S  S  S  S  S  S  S  S  S  S S
|--5----5----5-----5-----5-----5-----5-----5---|
|--7----7----7-----7-----7-----7-----7-----5---|
|--7----7----7-----7-----7-----7-----7-----6---|
|----------------------------------------------|
|----------------------------------------------|
|----------------------------------------------|
|
|  S S  S S  S  S  S  S  S  S  S  S  S  S  S S
|----------------------------------------------|
|----------------------------------------------|
|----------------------------------------------|
|-----------19----------------------19----23---|
|-21---21------21-20-21-23-21-20-21----21------|
|----------------------------------------------|


   S S  S S   S  S S S  S S  S S   S  S  S S
|--5----5-----5----5----5----5-----5-----5---|
|--5----5-----5----5----5----5-----5-----7---|
|--6----6-----6----6----6----6-----6-----7---|
|--------------------------------------------|
|--------------------------------------------|
|--------------------------------------------|
|
|  S S  E    +E    E    S S  E    +S  S  S S
|--------------------------------------------|
|--------------------------------------------|
|----------------------23---23---(23)---23---|
|-23-----------------------------------------|
|------24---(24)-----------------------------|
|--------------------------------------------|


   S  S  S  S  S  S  S  S  S  S  S  S  S S S S
|--5-----5-----5-----5-----5-----5-----5---5---|
|--7-----7-----7-----7-----7-----7-----7---5---|
|--7-----7-----7-----7-----7-----7-----7---6---|
|----------------------------------------------|
|----------------------------------------------|
|----------------------------------------------|
|
|  S  S  S  S  S  S  S  S  S  S  S  S  S S S S
|-------------------------------------10-9-7-5-|
|-------------------------------12-10----------|
|-23-21-19-18-19-18-19-18-16-14----------------|
|----------------------------------------------|
|----------------------------------------------|
|----------------------------------------------|


  S S S S  S  S S S  S S S S S S  S S    S  S S S S S S S  S  S E +S  S S S
|-5---5----5----5----5---5---5----5---|--5----5---5---5----5----4-(4)---5---|
|-5---5----5----5----5---5---5----7---|--7----7---7---7----7----5-(5)---6---|
|-6---6----6----6----6---6---6----7---|--7----7---7---7----7----4-(4)---5---|
|-------------------------------------|-------------------------------------|
|-------------------------------------|-------------------------------------|
|-------------------------------------|-------------------------------------|
|
| S S E   +E    E    Q       E    S S    Q.           E    Q.           E
|-9-----------------17-----------17---|-17----------------19----------------|
|-------------------------------------|-------------------------------------|
|-----9---(9)-------------------------|-------------------------------------|
|-------------------------------------|-------------------------------------|
|-------------------------------------|-------------------------------------|
|-------------------------------------|-------------------------------------|


   S  S S S S S S S  S S S S  S S S S    Q  E  S S  Q  E  S S
|--5------------------------------6---|--6---------------------|
|--6----6---6---6----6---6----6---6---|--6-----8----8----10----|
|--5----5---5---5----5---5----5---7---|--7-----9----9----10----|
|-------------------------------------|-------10---10----10----|
|-------------------------------------|------------------------|
|-------------------------------------|------------------------|
|
|  Q.           E    Q        Q          Q  E  S S  Q  E  S S
|-20----------------------------------|------------------------|
|-------------------------------------|------------------------|
|-------------------------------------|------------------------|
|-------------------------------------|------------------------|
|-------------------20-------20-------|-20----22---22----24----|
|-------------------------------------|------------------------|


   S S  S S  S S  S S  S S  S S  S S  S S    Q  E  S S  Q  E  S S
|-----------------------------------------|------------------------|
|-10---------------------------------11---|-11-----8----8----10----|
|-10---10---10---10---10---10---10---10---|-10-----9----9----10----|
|-10---10---10---10---10---10---10---12---|-12----10---10----10----|
|-----------------------------------------|------------------------|
|-----------------------------------------|------------------------|
|
|  Q         S S  S S  Q         E    S S    Q  E  S S  Q  E  S S
|-----------------------------------------|------------------------|
|-----------------------------------------|------------------------|
|-----------------------------------------|-------21---21----22----|
|-----------22---22---22-------------24---|-24---------------------|
|-24--------------------------------------|------------------------|
|-----------------------------------------|------------------------|


   S S  S  S   S   S  S S  S S  S S  S  S  S S
|----------------------------------------------|
|-10--------------------------------------11---|
|-10---10-----10-----10---10---10---10----10---|
|-10---12-----12-----12---12---12---12----12---|
|----------------------------------------------|
|----------------------------------------------|
|
|  E    S  S  +S   E    S  Q         S  E    S
|--------------------------------------22------|
|-22------22-(22)-22------22--------20---------|
|----------------------------------------------|
|----------------------------------------------|
|----------------------------------------------|
|----------------------------------------------|


   Q   E    S S  Q          E     S  S
|---------------------------------------|
|-11-------10---11----------------9-----|
|-10-------10---12---------------10-----|
|-12-------12---14---------------11-----|
|---------------------------------------|
|---------------------------------------|
|
|  Q   S S  S S  S  S S  S  S  S  S  S
|-22--20---18---17-18---20--------------|
|--------------------------18-20----21--|
|---------------------------------------|
|---------------------------------------|
|---------------------------------------|
|---------------------------------------|


   S  S  S S  S S  S S  S  S E    +S   S S  S
|----------------------------6----(6)----4----|
|--9-------------------------6----(6)----6----|
|-10----10---10---10---10----9----(9)----6----|
|-11----11---11---11---11---------------------|
|---------------------------------------------|
|---------------------------------------------|
|
|  Q.              E    S  S S  S  S   S S  S
|---------------------------------------------|
|-21-------------------21-20---18-20--21---21-|
|---------------------------------------------|
|---------------------------------------------|
|---------------------------------------------|
|---------------------------------------------|


   S S  S S   S  S  S S  S S  E   +S  S  S  S
|--4--------------------------6---(6)----4----|
|--6----6-----6-----6----6----6---(6)----6----|
|--6----6-----6-----6----6----9---(9)----6----|
|---------------------------------------------|
|---------------------------------------------|
|---------------------------------------------|
|
|  S S  E    +S  S  S S  S S  S S  S  S  S  S
|------------------21---21---20---18----16-18-|
|-23---21---(21)------------------------------|
|---------------------------------------------|
|---------------------------------------------|
|---------------------------------------------|
|---------------------------------------------|


   Q          E    S  S  Q         E    S S
|--4---------------3-----3--------------4---|
|--6---------------6-----6--------------6---|
|--6---------------6-----6--------------6---|
|-------------------------------------------|
|-------------------------------------------|
|-------------------------------------------|
|
|  S  S S  S  S  S S  S  S  S S  S S  S S S
|-18-16---15-16-15---13-15-13---11-9-11---9-|
|-------------------------------------------|
|-------------------------------------------|
|-------------------------------------------|
|-------------------------------------------|
|-------------------------------------------|


  Q        E     S  S  Q.              E
|-4--------------3-----3--------------------|
|-6--------------6-----6--------------------|
|-6--------------6-----6--------------------|
|-------------------------------------------|
|-------------------------------------------|
|-------------------------------------------|
|
| S S S S  S  S  S  S  S   S S  S S  S S  S
|-8-9-8-9-----------------------------------|
|---------11-13-11-13-----11-9-11-9-11-9-11-|
|---------------------13--------------------|
|-------------------------------------------|
|-------------------------------------------|
|-------------------------------------------|


   Q.   E Q  E S S   Q  Q  H      Q  Q  Q  E S S
|--1-----------1---|-1----------|-1----------1---|
|--1-----------1---|-1----------|-1----------1---|
|------------------|------------|----------------|
|------------------|------------|----------------|
|------------------|------------|----------------|
|------------------|------------|----------------|
|
|  Q.   E H          W            W
|------------------|------------|----------------|
|------------------|------------|----------------|
|-10---------------|------------|----------------|
|------------------|------------|----------------|
|------------------|------------|----------------|
|------------------|------------|----------------|


  Gtr I
  H           E    S S  S S  S S    S S  S S  S S  S S  S  S  E  +S  S  S S
|-----------------15---15---15---|-15---14---14---12---14----17-(17)---15---|
|--------------------------------|------------------------------------------|
|--------------------------------|------------------------------------------|
|--------------------------------|------------------------------------------|
|--------------------------------|------------------------------------------|
|--------------------------------|------------------------------------------|
|
| Gtr II
| E S S E S S S S  S S  Q           H                  +Q         Q
|---1-----1---1----1----0--------|--2------------------(2)------------------|
|---1-----1---1----1----0--------|--3------------------(3)------------------|
|--------------------------------|--2------------------(2)------------------|
|--------------------------------|------------------------------------------|
|--------------------------------|------------------------------------------|
|--------------------------------|------------------------------------------|


   S S  E  +S  S E  E   S S  S S  S S
|-15---14-(14)---------12---14---17---|
|-------------------------------------|
|-------------------------------------|
|-------------------------------------|
|-------------------------------------|
|-------------------------------------|
|
|  H               +Q        Q
|--2---------------(2)----------------|
|--3---------------(3)----------------|
|--2---------------(2)----------------|
|-------------------------------------|
|-------------------------------------|
|-------------------------------------|


                                            2/4
   S S  S S  S S  S S  S  S  S S  S S  S S    S S  E  +S  S  S S
|-17---15---15---14---15----14---15---14---|-15---19-(19)---17---|
|------------------------------------------|---------------------|
|------------------------------------------|---------------------|
|------------------------------------------|---------------------|
|------------------------------------------|---------------------|
|------------------------------------------|---------------------|
|
|  H                  +Q          Q           S S  E  +S  S  S S
|--3------------------(3)------------------|--3----3--(3)----3---|
|--3------------------(3)------------------|--3----3--(3)----5---|
|--4------------------(4)------------------|--4----4--(4)----5---|
|------------------------------------------|---------------------|
|------------------------------------------|---------------------|
|------------------------------------------|---------------------|


 4/4
   S  S  S  S  Q    S S E  Q
|-17----15----15---15---------------|
|----------17-----------------------|
|-----------------------------------|
|-----------------------------------|
|-----------------------------------|
|-----------------------------------|
|
|  Q.            E  S S E +S  S S S
|--3----------------3---3-(3)---0---|
|--5----------------5---3-(3)---1---|
|--5----------------5---4-(4)---2---|
|-----------------------------------|
|-----------------------------------|
|-----------------------------------|


  Q    S S  S S  S S  E  +S  S  S S    Q  E  S S  S S  S S  Q
|-----15--------15---17-(17)---15---|-14---------17---15---17---|
|----------17-----------------------|-------15------------------|
|-----------------------------------|---------------------------|
|-----------------------------------|---------------------------|
|-----------------------------------|---------------------------|
|-----------------------------------|---------------------------|
|
| Q.        E    S S  E  +S  S  S S    Q  E  S S  Q         Q
|-0--------------0----3--(3)----3---|--3----------5---------5---|
|-1--------------1----5--(5)----3---|--3-----3----7---------7---|
|-2--------------2----5--(5)----2---|--2----------7---------7---|
|-----------------------------------|---------------------------|
|-----------------------------------|---------------------------|
|-----------------------------------|---------------------------|


   Q        S S  S S  S S  S S  S  S  S S
|-17--------------------------------------|
|----------17---17---17---17---19----19---|
|-----------------------------------------|
|-----------------------------------------|
|-----------------------------------------|
|-----------------------------------------|
|
|  S S S S  S S  S S  S S  E   +S  S  S S
|-------------------------------------5---|
|--5---5----5----5----5----5---(5)----7---|
|--6---6----6----6----6----6---(6)----6---|
|--7---7----7----7----7----7---(7)--------|
|-----------------------------------------|
|-----------------------------------------|


  Q        S S  S S  S S  S S  S  S  S S
|----------------------------------------|
|----------------------------------------|
|-----------------------------18----18---|
|---------19---19---19---19--------------|
|----------------------------------------|
|----------------------------------------|
|
| S S S S  S S  S S  S S  E   +S  S  S S
|-5---5----5----5----5----5---(5)--------|
|-7---7----7----7----7----7---(7)----5---|
|-6---6----6----6----6----6---(6)----6---|
|------------------------------------7---|
|----------------------------------------|
|----------------------------------------|


  Q        S S  S S  S S  S S  S  S  S S   Q        S S  S S  Q      S  S  S S
|----------------------------------------|---------17--------19-----17----17---|
|---------17---17---17---17---19----19---|--------------19---------------------|
|----------------------------------------|-------------------------------------|
|----------------------------------------|-------------------------------------|
|----------------------------------------|-------------------------------------|
|----------------------------------------|-------------------------------------|
|
| S S S S  S S  S S  S S  E   +S  S  S S   S S S S  S S  S S  S S E +S  S  S S
|----------------------------------------|-------------------------------------|
|-5---5----5----5----5----5---(5)----7---|-7---7----7----7----7---7-(7)----5---|
|-6---6----6----6----6----6---(6)----7---|-7---7----7----7----7---7-(7)----6---|
|-7---7----7----7----7----7---(7)----7---|-7---7----7----7----7---7-(7)----7---|
|----------------------------------------|-------------------------------------|
|----------------------------------------|-------------------------------------|


   S  S  S S  S S  S S  S S  S S  S  S  S S
|-17----------------------------------------|
|----19-17---17---17---17---17---19----19---|
|-------------------------------------------|
|-------------------------------------------|
|-------------------------------------------|
|-------------------------------------------|
|
|  S  S  S S  S S  S S  S S  E   +S  S  S S
|-------------------------------------------|
|--5-----5----5----5----5----5---(5)----7---|
|--6-----6----6----6----6----6---(6)----7---|
|--7-----7----7----7----7----7---(7)----7---|
|-------------------------------------------|
|-------------------------------------------|


  Q        S S  S S  S S  S S  S  S  S S
|----------------------------------------|
|----------------------------------------|
|-----------------------------18----18---|
|---------19---19---19---19--------------|
|----------------------------------------|
|----------------------------------------|
|
| S S S S  S S  S S  S S  E   +S  S  S S
|----------------------------------------|
|-7---7----7----7----7----7---(7)----5---|
|-7---7----7----7----7----7---(7)----6---|
|-7---7----7----7----7----7---(7)----7---|
|----------------------------------------|
|----------------------------------------|


  Q        S S  S S  S S  S S  S  S  S S
|----------------------------------------|
|---------17---17---17---17---19----19---|
|----------------------------------------|
|----------------------------------------|
|----------------------------------------|
|----------------------------------------|
|
| S S S S  S S  S S  S S  E   +S  S  S S
|----------------------------------------|
|-5---5----5----5----5----5---(5)----7---|
|-6---6----6----6----6----6---(6)----7---|
|-7---7----7----7----7----7---(7)----7---|
|----------------------------------------|
|----------------------------------------|


  Q        S S  S S  S S  E  +S  S  S S
|---------17--------17---21-(21)---21---|
|--------------19-----------------------|
|---------------------------------------|
|---------------------------------------|
|---------------------------------------|
|---------------------------------------|
|
| S S S S  S S  S S  S S  E  +S  S  S S
|---------------------------------------|
|-7---7----7----7----7----7--(7)----7---|
|-7---7----7----7----7----7--(7)----7---|
|-7---7----7----7----7----7--(7)----9---|
|---------------------------------------|
|---------------------------------------|


   S S  S  S  Q        S S E  Q
|-19---17----17-------17---------------|
|---------19---------------------------|
|--------------------------------------|
|--------------------------------------|
|--------------------------------------|
|--------------------------------------|
|
|  S S  S  S  S S S S  S S E +S  S S S
|----------------------------------7---|
|--7----7-----7---7----7---7-(7)---9---|
|--7----7-----7---7----7---7-(7)---9---|
|--9----9-----9---9----9---9-(9)-------|
|--------------------------------------|
|--------------------------------------|


  Q       E    S S  S S  S S  Q    H     S S  S S  Q
|------------------17---17---17--|------22---22---22--|
|-------------19-----------------|------22---22---22--|
|--------------------------------|------23---23---23--|
|--------------------------------|--------------------|
|--------------------------------|--------------------|
|--------------------------------|--------------------|
|
| S S S S S S  S S  Q         Q    H     Q         Q
|-7---7---7----7----5---------5--|-------5---------5--|
|-9---9---9----9----7---------7--|-------7---------7--|
|-9---9---9----9----7---------7--|-------7---------7--|
|--------------------------------|--------------------|
|--------------------------------|--------------------|
|--------------------------------|--------------------|


   H      S  S  S S  Q     S S  S  S  S  S  S  S S  E.  +Q      W
|--------22----22---22--|-21---19-21-21----19-17---17--(17)--|----------------|
|--------22----22---22--|-22---19-22-22-19----17---17--(17)--|----------------|
|--------23----23---23--|-21---19-21-21----19-18---18--(18)--|----------------|
|-----------------------|------------------------------------|----------------|
|-----------------------|------------------------------------|----------------|
|-----------------------|------------------------------------|----------------|
|
|  H     +Q          Q     W                                    H     +Q   Q
|-10----(10)------------|------------------------------------|--9-----(9)-----|
|--7-----(7)------------|------------------------------------|-10----(10)-----|
|-----------------------|------------------------------------|--9-----(9)-----|
|-----------------------|------------------------------------|----------------|
|-----------------------|------------------------------------|----------------|
|-----------------------|------------------------------------|----------------|


  Gtr II
  H     s S E Q
|-------9----------*|
|------10----------*|
|-------9----------*|
|------------------*|
|------------------*|
|------------------*|


Duration Legend
---------------
W - whole; H - half; Q - quarter; E - 8th; S - 16th; T - 32nd; X - 64th; a - acciaccatura
+ - note tied to previous; . - note dotted; .. - note double dotted
Uncapitalized letters represent notes that are staccato (1/2 duration)
Irregular groupings are notated above the duration line
Duration letters will always appear directly above the note/fret number it represents the
duration for.  Duration letters with no fret number below them represent rests.  Multi-
bar rests are notated in the form Wxn, where n is the number of bars to rest for.  Low
melody durations appear below the staff

Tablature Legend
----------------
 h   - hammer-on
 p   - pull-off
 b   - bend
 pb  - pre-bend
 r   - bend release (if no number after the r, then release immediately)
 /\  - slide into or out of (from/to "nowhere")
 s   - legato slide
 S   - shift slide
  - natural harmonic
[n]  - artificial harmonic
n(n) - tapped harmonic
 ~   - vibrato
 tr  - trill
 T   - tap
 TP  - trem. picking
 PM  - palm muting
\n/  - tremolo bar dip; n = amount to dip
 \n  - tremolo bar down
 n/  - tremolo bar up
/n\  - tremolo bar inverted dip
 =   - hold bend; also acts as connecting device for hammers/pulls
 <>  - volume swell (louder/softer)
 x   - on rhythm slash represents muted slash
 o   - on rhythm slash represents single note slash

Misc Legend
-----------
 |  - bar
||  - double bar
||o - repeat start
o|| - repeat end
*|  - double bar (ending)
 :  - bar (freetime)
 $  - Segno
 &  - Coda
Tempo markers -  = BPM(8/16=s8/s16), where s8 = swing 8ths, s16 = swing 16ths
Tap to rate this tab
# A B C D E F G H I J K L M N O P Q R S T U V W X Y Z