Song name
# A B C D E F G H I J K L M N O P Q R S T U V W X Y Z

Bring Me The Horizon - Death Breath tab

Bring Me The Horizon - Death Breath (Guitar Tab)

Tuning - Drop G (Lowest to highest)-> G-D-G-C-E-A
(All strings tuned downwards.)

Ok, so I tabbed this much out a long time ago and I never got round to
finishing it and probably will not be tuning my guitar back to this low. So
there's no tabs for this song already I thought I'd give you what I've got
and maybe someone can finish the tab, shouldn't be too hard from what I've
already got and fairly sure it's 100% correct.


A |-------------------------------------------|
E |-------------------------------------------|
C |-------------------------------------------|
G |-------------------------------------------|
D |--18-17-15--17~\---------------------------|
G |----0--0--00-------------------------------|
[PM]


A |-------------------------------------------|
E |-------------------------------------------|
C |-------------------------------------------|
G |-------------------------------------------|
D |--18-17-15--17~\---------------------------|
G |----0--0--00-------------------------------|
[PM]


A |-------------------------------------------|
E |-------------------------------------------|
C |-------------------------------------------|
G |-------------------------------------------|
D |--18-17-15--17-----------------------------|
G |----0--0--00--000001200012000120001200012--|
[PM]


A |-------------------------------------------|
E |-------------------------------------------|
C |-------------------------------------------|
G |-------------------------------------------|
D |--18-17-15--17-----------------------------|
G |----0--0--00--000001200012000120001200012--|
[PM]


A |----------|
E |----------|
C |--15------|
G |----------|
D |--13------|
G |----------|
[PM]


A |----------------------------------------------|
E |----------------------------------------------|
C |----------------------------------------------|
G |----------------------------------------------|
D |--18-17-15--17--------------------------------|
G |----0--0--00--000001200012000120001200131313--|
[PM]


A |-----------------------------------------------------|
E |-----------------------------------------------------|
C |-----------------------------------------------------|
G |---------------------1515151515151515-12121212-8888--|
D |--18-17-15--17-------1313131313131313-10101010-6666--|
G |----0--0--00--0000012--------------------------------|
[PM]


A |----------------------------------------------|
E |----------------------------------------------|
C |----------------------------------------------|
G |----------------------------------------------|
D |--18-17-15--17--------------------------------|
G |----0--0--00--000001200012000120001200131313--|
[PM]


A |-----------------------------------------------------|
E |-----------------------------------------------------|
C |-----------------------------------------------------|
G |---------------------1515151515151515-12121212-8888--|
D |--18-17-15--17-------1313131313131313-10101010-6666--|
G |----0--0--00--0000012--------------------------------|
[PM]


A |----------|
E |--15~-----|
C |----------|
G |----------|
D |----------|
G |----------|
[PM]
Tap to rate this tab
# A B C D E F G H I J K L M N O P Q R S T U V W X Y Z