Song name
# A B C D E F G H I J K L M N O P Q R S T U V W X Y Z

Bring Me The Horizon - Sleepwalking tab

[0:13] - [0:26]
E|-----------------------------------------------|
B|-----------------------------------------------|
G|-----------------------------------------------|
D|-8-88-88-8888--5555555--0-00-00-0000--3333333--| [2x]
A|-8-88-88-8888--5555555--0-00-00-0000--3333333--|
D|-8-88-88-8888--5555555--0-00-00-0000--3333333--|


[0:39] - [0:50]
E|----------------------------------------------|
B|----------------------------------------------|
G|----------------------------------------------|
D|---8-88-88--555---0-00-00--333----------------|  [2x]
A|---8-88-88--555---0-00-00--333----------------|
D|---8-88-88--555---0-00-00--333----------------|

[0:51]
E|-----------------------------------------------|
B|-----------------------------------------------|
G|-----------------------------------------------|
D|-8-88-88-8888--5555555--0-00-00-0000--3333333--| [4x]
A|-8-88-88-8888--5555555--0-00-00-0000--3333333--|
D|-8-88-88-8888--5555555--0-00-00-0000--3333333--|

[1:18] - [1:30]
These part is preety easy. It's just "0-0-0-0-0"
E|------------------------------------------------------------------------|
B|------------------------------------------------------------------------|
G|------------------------------------------------------------------------|
D|------------------------------------------------------------------------| 
A|------------------------------------------------------------------------|
D|-0-000-0-0-0-000-0-0-0--00-0-0-0-0-0-0--00-0-000-0-0-0--00-0-00-0-0-----|
     ...   .   ...   .    ..   .   .      ..   ...   .    ..   .. 

[1:43] - [2:07]
E|-----------------------------------------------|
B|-----------------------------------------------|
G|-----------------------------------------------|
D|-8-88-88-8888--5555555--0-00-00-0000--3333333--| [3x]
A|-8-88-88-8888--5555555--0-00-00-0000--3333333--|
D|-8-88-88-8888--5555555--0-00-00-0000--3333333--|

E|-----------------------------------------------|
B|-----------------------------------------------|
G|-----------------------------------------------|
D|-8-88-88-8888--5555555--0-00-00-0000--1111111--| 
A|-8-88-88-8888--5555555--0-00-00-0000--1111111--|
D|-8-88-88-8888--5555555--0-00-00-0000--1111111--|

[2:08] - [2:22]
E|-------------------------------------------------------|
B|-------------------------------------------------------|
G|---------------7-----7-------------------7-------------|
D|---------------x-----x-------------------x-------------| [2x] 
A|---------------5-----5-------------1-----5---666-33333-|
D|-000-000-0-1-0---000---000-0-1-0-0---1-0---0-----------|

[3:00] - [3:26]
E|-----------------------------------------------|
B|-----------------------------------------------|
G|-----------------------------------------------|
D|-8-88-88-8888--5555555--0-00-00-0000--3333333--| [4x]
A|-8-88-88-8888--5555555--0-00-00-0000--3333333--|
D|-8-88-88-8888--5555555--0-00-00-0000--3333333--|

[3:27] - 
E|-----------------------------------------------|
B|-----------------------------------------------|
G|-----------------------------------------------|
D|-8-88-88-8888--5555555--0-00-00-0000--3333333--| 
A|-8-88-88-8888--5555555--0-00-00-0000--3333333--|
D|-8-88-88-8888--5555555--0-00-00-0000--3333333--|

End.

P.S.
I'm from Belarus, so sorry for my English.
I'm only 15 years old. I play the guitar for 1 year, so there can be mistakes 
here, but i think it's ok.
Tap to rate this tab
 
# A B C D E F G H I J K L M N O P Q R S T U V W X Y Z