Song name
# A B C D E F G H I J K L M N O P Q R S T U V W X Y Z

British India - Vanilla tab

From the Beneath The Satellites Single and from the album Avalanches

Tuning: DROP D

Guitar 1
|-------------------------------|
|-------------------------------|
|-------0----------0-------0----| repeat this throughout
|----1-----1-----1---1---1---1--| all the verses
|--------------3-------3--------|
|-1-----------------------------|

Guitar 2
|----------------------------------|
|---8h9h8--8/11\9---8h9h8--6\4-----|
|----------------------------------|
|----------------------------------|
|----------------------------------|
|----------------------------------|


After the first verse Guitar 2 Plays

|--------------------------------|
|--8h9h8----8h9h8---6\4/6/8------|
|--------------------------------|
|--------------------------------|
|--------------------------------|
|--------------------------------|


The Chorus part is
|-----------------------------------------------------------|
|-----------------------------------------------------------|
|-----------------------------------------------------------|
|---1-1-/--13-13-13-13-13-13-----1-1---10-10--1-1--10-------|
|---1-1-/--13-13-13-13-13-13-x4--1-1---10-10--1-1--10-------|
|---1-1-/--13-13-13-13-13-13-----1-1---10-10--1-1--10-------|

and the little lead break is

|---------------|
|---16^-13^-----|
|---------------|
|---------------|
|---------------|
|---------------|
Tap to rate this tab
# A B C D E F G H I J K L M N O P Q R S T U V W X Y Z