Song name
# A B C D E F G H I J K L M N O P Q R S T U V W X Y Z

Brodie - One Of A Kind tab

Band:  Brodie Punk
Song:  One of a Kind

Key
\    slide
~    vibrato

intro:

e|---------------------------------------------------------------------|
B|------7\8-7--5---------7\8-7----------------7\8-75------------------|
G|----------------797----------7976-7~------------7--97~---------|
D|---------------------------------------------------------------------|
A|---------------------------------------------------------------------|
E|---------------------------------------------------------------------|


Solo:

e|----------------------------------------------------------------
B|---------5\7578875------58757810\12-----11\1210----
G|---77---------------------7---------------------9--------------
D|----------------------------------------------------------------
A|----------------------------------------------------------------
E|----------------------------------------------------------------

----------------------------------------------------------------|
------81011108-------97-----------------------------------|
---9----------------9-7-------97-97--------------------------|
----------------------------------------------------------------|
----------------------------------------------------------------|
----------------------------------------------------------------|

Comments please write at
oso_goloso66@hotmail.com
Tap to rate this tab
 
# A B C D E F G H I J K L M N O P Q R S T U V W X Y Z