Song name
# A B C D E F G H I J K L M N O P Q R S T U V W X Y Z

Brodie - I Know tab

Artist: Brodie
Song: I Know
Album: Brodie/ Glasshead split EP
Tabbed BY: Tim Bryant
Email: theimmoralmonkey@hotmail.com

Here is another great song by brodie. Do me a favour and check out my
neighbour’s band. There address is www.waybackwhenband.com
Enjoy and laters  


Intro - Lead Guitar
-----------------------------------------
------8--9-----8--9------9--8--11--9--8--
--10--------8----------------------------
---------------------10------------------
-----------------------------------------
-----------------------------------------


Double Time - Lead Guitar 1st part
----------------------------------
----------------------------------
--13------13------13--15--12------
------13------11--------------13--
--11------11------11--13--10------
------11------9---------------11--


Double Time - Lead Guitar 2nd part

------------------------------
------------------------------
--13------13------13--15--17--
------13------11--------------
--11------11------11--13--15--
------11------9---------------


Chorus - Both Guitars
1st mime muted
2nd time not muted

--------------|-----------------
--------------|-----------------
--------------|-----------------
-----6--6--3--|-----6--6--6--8--
--3--4--3--1--|--3--4--3--4--6--
--1-----------|--1--------------



Chorus

------------------
------------------
------------------
--10--8--6--------
--8---6--4--6--6--
------------4--3—
That’s it, enjoy this quality Brodie tab.
Tap to rate this tab
# A B C D E F G H I J K L M N O P Q R S T U V W X Y Z