Guitaretab - guitar tabs
Song name
# A B C D E F G H I J K L M N O P Q R S T U V W X Y Z

Brodie - Perfect Girl tab

Brodie - Perfect Girl
This is by far one of the best songs by brodie and it certainly is the "catchiest"

Intro - Lead Guitar

--------------------
--6--5--8--6--5--6--
--5--5--5--5--5--5--
--------------------
--------------------
--------------------


Intro - Rhythm Guitar
Same Chords used in Verse

-----------------
-----------------
-----------------
-----5-----3--5--
--3--3--5--1--3--
--1-----3--------


Chorus

--------------
--------------
--------------
--7--3-----5--
--5--1--3--3--
--------1-----


Bridge
big hits on each of these
[ Tab from: http://www.guitaretab.com/b/brodie/30298.html ]
-----------------
-----------------
-----------------
-----5-----3--5--
--3--3--5--1--3--
--1-----3--------


Lead Guitar Ending
Do the top line 3 times then go to the bottom line

----------------------------------
----------------------------------
----------------------------------
--10--9--5--10--9--12--10--9--10--
---8--7--3---8--7--10---8--7---8--
----------------------------------

----------------------------------
----------------------------------
----------------------------------
--10--12--14--15--14--12--14--10--
---8--10--12--13--12--10--12---8--
----------------------------------

any opinions, questions or corrections can be sent to naughtyboy5000@yahoo.com
Related for Perfect Girl tab