Song name
# A B C D E F G H I J K L M N O P Q R S T U V W X Y Z

Brudadoug - Amaze Me tab

song: amaze me
artist: bruda'doug
transcribed by Jason Ronald Ramey




e[-----------------------------|----------------|
B[----------------------3~*-1~*|----------------|
G[-----------------0h2---------|----------------|
D[-2-2-2-2-2-2-2-2-------------|REPEAT 3 X THEN:|
A[-0-0-0-0-0-0-0-0-------------|----------------|
E[-----------------------------|----------------|


e[----------------------------------------]
B[----------------------------------------]
G[----------------------------------0-2---]
D[--------------------------------------3-]
A[-3-3-3-3-3-3-3-3-5-5-5-5-5-5-5-5--------]
E[-1-1-1-1-1-1-1-1-3-3-3-3-3-3-3-3--------]

VERSE 1
Am          Am          F G   Am             F          G    Am
amy, you're amazing, to me....any days brand new, with you....
    Am                                F           G      Am
and all the things that you do, well, it could be me and you....
F        G
being so happy....

CHORUS*****************************
F          G         Am   Am  F           G               Am    Am
MAYBE WE'RE MEANT TO BE....   MAYBE WE'LL HAVE TO WAIT AND SEE....
     F                G             C         Am
WELL YOU CAN PRACTICE ON ME, AS I'M PATIENTLY WAITING
   F   G         Am  Am
OH AMY....YOU  AMAZE ME
**************************************

VERSE 2
Am                       Am              F     G
even if we're not, girl, we never lost a moment....
Am                           Am                F          G   Am
you're just so beautful, and I'am a little, in love with you....
    F      G
and maybe, you're too....

****chorus****

BRIDGE
F          G           F          G
AMAZE ME, AMAZING, YOU MAKE ME SO CRAZY
 F        G    F       G
AMAZE ME, AMY, AMAZING AMY

THATS MOST ALL OF IT....THERES A CRAZY GUITAR OUTRO THAT i'M ALMOST
FINISHED LEARNING....I'LL TAB IT WHEN I GET IT DOWN. L8-J.R.R.
Tap to rate this tab
# A B C D E F G H I J K L M N O P Q R S T U V W X Y Z