Song name
# A B C D E F G H I J K L M N O P Q R S T U V W X Y Z

Bryan Adams - Sound The Bugle tab

E|-----------------------------------|
A|-----------------------------------|
D|-----------------------------------|
G|-12-11---9br-7-9-12/7---5-9-7------|
B|------12---------------------------|
e|-----------------------------------|

E|-----------------------------------|
A|-----------------------------------|
D|-----------------------------------|
G|-12-11---9br-7-9-12/7-5-9-12/7-----|
B|------12---------------------------|
e|-----------------------------------|

(0:36)
E|-----------------------------------|
A|-----------------------------------|
D|-----------------------------------|
G|12-12-12-11-11-11-9-9-9/-7h9\12----|
e|-----------------------------------|

E|-----------------------------------|
A|-----------------------------------|
D|-----------------------------------|
G|12-12-12-11-11-11-9---11---9brbr---|
e|-----------------------------------|


(1:52)
E|-----------------------------------|
A|-----------------------------------|
D|-----------------------------------|
G|-12-11---9br-7-9-12/7-5-9-12/7-----|
B|------12---------------------------|
e|-----------------------------------|


And that is pretty much it with everything that isn't chords hope you enjoy it!
Tap to rate this tab
 
# A B C D E F G H I J K L M N O P Q R S T U V W X Y Z