Song name
# A B C D E F G H I J K L M N O P Q R S T U V W X Y Z

Buckcherry - Crazy Bitch tab

I have been looking for this song in the proper tab for it. I have veiwed alot of them.
Although they are ok. It just did not sound like the song. SO after messing with it for
while, i found the acutal way to play this song. And if you watch video of this Band you 
see that it is correct. Hope this helps.

This is Standard tunning that I know of... and is really the intro to it...and some of
verse...lol. If you have the rest of this song please send it to me. thanks.

This is the Intro. The 7 9 9 chords is also played during the Chorus, I just dont know
else hes playing in that. If you listen to the song rythm. ANd play this I believe you
find it to be correct.

e --------------------------------------------------------------------------|
b ---------------------------9b-9--7-9-7-7----------------------------------|
g ---------------------------9b-9--7-9-7-7---------------------7------------|
d --9--9--------9-9-9-9-9-9-----------------9-9-9-9-9---7/8/9--7h9----------|
a --9--9--------9-9-9-9-9-9-----------------9-9-9-9-9---7/8/9---------------|
E --7--7-/-0----7-7-7-7-7-7-----------------7-7-7-7-7-----------------------|

e -------------------------------------------------------------------------|
b ------------9b-9-7-9-7-7-------------------------------------------------|
g ------------9b-9-7-9-7-7-------------------------------------------------|
d -9-9-9-9-9-----------------------------7-7-7-----------------------------|
a -9-9-9-9-9--------------------0-6-7-7--5-5-5--9-9-9----------------------|
E -7-7-7-7-7--------------------0-4-5-5---------7-7-7----------------------|

The below is the verse: As far as I know this is what they are playing, I could be wrong 
this one.

e -------------------------------------------------------------------------|
b -------------------------------------------------------------------------|
g -------------------------------------------------------------------------|
d -------------------------------------------------------------------------|
a ---------------5----------------------7----------------------5-----------|
E -5h7-7-7-7-7-7----5h7---5h7-7-7-7-7-7---5-0--0-4-0-5-5-0-6-6---7-7-------|
Tap to rate this tab
# A B C D E F G H I J K L M N O P Q R S T U V W X Y Z