Song name
# A B C D E F G H I J K L M N O P Q R S T U V W X Y Z

Buckethead - Soothsayer tab

-------------------------------------------------------------------------------
			    "Soothsayer" --- Buckethead
-------------------------------------------------------------------------------

Tabbed by: [travis]


Tuning: Eb Ab Db Gb Bb Eb (low to high)


Key: D Major === D E F# G A B C# 


Legend:

... = palm mute
h = hammer on
p = pull off
b = bend
pb = pre bend
x = muffled string
() = note not picked / bent note back to normal
* = pinch harmonic
__ = hold bend
w = whammy bar
[] = steps on whammy bar
- = push down on whammy bar
+ = pull up on whammy bar
" = harmonic
h/ = pick once
p\ = pick once
.5 = half step bend
1 = whole step bend
1.5 = whole step and half bend
2 = two step bend
2.5 = two and a half step bend
V = whammy pedal (Have Whammy Pedal On One Octave)
T = tap with Index Finger
M = tap with Middle Finger
/ = slide up
\ = slide down
! = killswitch button (Buckethead style)
~ = vibrato / ring
x/x/ = pickslide up
x\x\ = pickslide down



===================================
Guitar 1:
eb|-------------10p9------------------------0---------------------------10p9----------------|
Bb|--------12---------12p10-10h12p10----10-----8~~-7--8p7-----------12-------12p10-10h12p10-|
Gb|----11-----------11---------------9---------7~~--------7-----11--------------------------|
Db|-9---------9----------------------------------------------9---------9----9---------------|
Ab|-----------------------------------------------------------------------------------------|
Eb|-----------------------------------------------------------------------------------------|

====================================
Guitar 1:
eb|--------0-------------|
Bb|----10------7~~~~-----|
Gb|-9----------7~~~~-----|
Db|------------9~~~~-----|
Ab|-----------10~~~~-----|
Eb|----------------------|

====================================
Guitar 1:
eb|------------10p9-------------------------0---------------------------10p9---------------------0--|
Bb|-------12---------12p10-10h12p10-----10-----8~~--7--8p7----------12-------12p10-10h12p10---10---8|
Gb|---11-----------11----------------9---------7~~---------7-----11-------------------------9------7|
Db|9----------9-----------------------------------------------9--------9----9-----------------------|
Ab|-------------------------------------------------------------------------------------------------|
Eb|-------------------------------------------------------------------------------------------------|

====================================
Guitar 1:
eb|------------10p9-------------------------0---------------------------10p9---------------------0--|
Bb|-------12---------12p10-10h12p10-----10-----8~~--7--8p7----------12-------12p10-10h12p10---10---8|
Gb|---11-----------11----------------9---------7~~---------7-----11-------------------------9------7|
Db|9----------9-----------------------------------------------9--------9----9-----------------------|
Ab|-------------------------------------------------------------------------------------------------|
Eb|-------------------------------------------------------------------------------------------------|

====================================
Guitar 1:
eb|------------10p9------------------------------------|
Bb|--------12-------12p10-10h12p10---------10---7~~~~~-|
Gb|----11---------------------------------------7~~~~~-|
Db|-9---------9----9-------------------11-------9~~~~~-| x3
Ab|--------------------------------12----------10~~~~~-|
Eb|----------------------------------------------------|

====================================
Guitar 1:
eb|-------------10p9-----------------------------------------------------|
Bb|--------12--------12p10-10h12p10----------10---7~~~~------------------|
Gb|----11-----------------------------------------7~~~~------------------|
Db|-9---------9-----9--------------------11-------9~~~~------------------|
Ab|----------------------------------12----------10~~~~-----x/x/x/x/x/x/-|
Eb|----------------------------------------------------------------------|

====================================
Guitar 1:
eb|-----------------------------------------------------------------------------------------|
Bb|-----------------------------------------------------------------------------------------|
Gb|-----------------------------------------------------------------------------------------|
Db|-----------------------12-12~~~~~~---------------------------------------4-5-7-5-4-------|
Ab|-9----9--9-7--12----12-10-10~~~~~~--9--9--9-7--12-12-12-\5~~~-------4-5-7---------5-4----|
Eb|-7----7--7-7--10----10--------------7--7--7-7--10-10-10-\3~~~--3-5-7-----------------7~~~|
         .                                   ...                  ......................

=====================================
Guitar 1:
eb|----------------------------------------------------------------------|
Bb|----------------------------------------------------------------------|
Gb|----------------------------------------------------------------------|
Db|---------------------------12~~~~--12---------------------------------|
Ab|---------12----------------10~~~~--10---9---9--9-7--12--12--5~~~~~~~~-|
Eb|-7--7-0--10---15h/17-15~~~~-----------0-7---7--7-7--10--10--3~~~~~~~~-|
       ...                               .        ...

=====================================
Guitar 1:
eb|-------------10p9------------------------0---------------------------10p9----------------|
Bb|--------12---------12p10-10h12p10----10-----8~~-7--8p7-----------12-------12p10-10h12p10-|
Gb|----11-----------11---------------9---------7~~--------7-----11--------------------------|
Db|-9---------9----------------------------------------------9---------9----9---------------|
Ab|-----------------------------------------------------------------------------------------|
Eb|-----------------------------------------------------------------------------------------|

====================================
Guitar 1:
eb|--------0-------------|
Bb|----10------7~~~~-----|
Gb|-9----------7~~~~-----|
Db|------------9~~~~-----|
Ab|-----------10~~~~-----|
Eb|----------------------|

=====================================
Guitar 1:
eb|-------------10p9------------------------0---------------------------10p9----------------|
Bb|--------12---------12p10-10h12p10----10-----8~~-7--8p7-----------12-------12p10-10h12p10-|
Gb|----11-----------11---------------9---------7~~--------7-----11--------------------------|
Db|-9---------9----------------------------------------------9---------9----9---------------|
Ab|-----------------------------------------------------------------------------------------|
Eb|-----------------------------------------------------------------------------------------|

====================================
Guitar 1:
eb|--------0----------------------|
Bb|----10------7~~~~--------------|
Gb|-9----------7~~~~--------------|
Db|------------9~~~~--------------|
Ab|-----------10~~~~-x\x\x\x\x\x\-|
Eb|-------------------------------|

====================================
Guitar 1:
eb|---------------------------------------------------------------------------------------|
Bb|---------------------------------------------------------------------------------------|
Gb|---------------------------------------------------------------------------------------|
Db|------------------12h/14-12~~~~~-----------------------------------------4-7-5-4-------|
Ab|-9---9--9-9--12---10h/12-10~~~~~---9---9--9-9--12--12~~--5~~~-------4-5-7-------5-4----|
Eb|-7---7--7-7--10--------------------7---7--7-7--10--10~~--3~~~--3-5-7---------------7~~~|
           ...                               ...                  ....................

====================================
Guitar 1:
eb|--------------------------------------------------------------------------------|
Bb|--------------------------------------------------------------------------------|
Gb|--------------------------------------------------------------------------------|
Db|--------------12h/14-12~~~~~~~---12---------------------------------------------|
Ab|---------12---10h/12-10~~~~~~~---10----9---9--9----12-12--12----5~~~~-----------|
Eb|-7--0-0--10-------------------------0--7---7--7-0--10-10--10-0--3~~~~--3!-----3-|
       ...                             .         ...            .

====================================
Guitar 1:
eb|------------------------------------------------------------------------------------------|
Bb|------------------------------------------------------------------------------------------|
Gb|------------------------------------------------------------------------------------------|
Db|------------------------12--12~~~~~---------------------------x-----------------------x-x-|
Ab|-9---9--9----12--12--12-10--10~~~~~----9---9--9----12--12~~~--x-5~~~~-------/15-------x-x-|
Eb|-7---7--7-0--10--10--10----------------7---7--7-0--10--10~~~----3~~~~-x\x\x\-----19p\-----|
           ...                                   ...                                     ...

====================================
Guitar 1:
eb|--------------------------------------------------------------------|
Bb|--------------------------------------------------------------------|
Gb|--------------------------------------------------------------------|
Db|--------x-x-----------12--12~~~~~~~---------------7--7--7----5~~~~~-|
Ab|-9---9--x-x--12----12-10--10~~~~~~~---9---9--9----5--5--5-0--5~~~~~-|
Eb|-7---7--x-x--10----10-----------------7---7--7-0--------0-0--3~~~~~-|
           ...                                  ...        ...

====================================
Guitar 1:
eb|-------9-9-10-10-------12-12-10-10-9-9-10-10-------9-9-------------------------------10-10-|
Bb|-----------------12-12-----------------------12-12-----------10-10-------------------------|
Gb|-11-11-------------------------------------------------11-11-------12-12-11-11-12-12-------|
Db|-------------------------------------------------------------------------------------------|
Ab|-------------------------------------------------------------------------------------------|
Eb|-------------------------------------------------------------------------------------------|

Guitar 2:
eb|--------------------------------------------|
Bb|--------------------------------------------|
Gb|--------------------------------------------|
Db|--------------------------------------------|
Ab|-14~~~~~~~~~~~~~~~~~~~~~~~~~~--\5~~~~~~~~~~-|
Eb|-12~~~~~~~~~~~~~~~~~~~~~~~~~~--\3~~~~~~~~~~-|

====================================
Guitar 1:
eb|-------12-12-9-9-------10-10-12-12-9-9-10-10-9-9-------------------------------------------|
Bb|-------------------------------------------------10-10-------------8h10-10-8-8-------------|
Gb|-11-11-----------11-11---------------------------------11-11-12-12-------------11-11-------|
Db|-------------------------------------------------------------------------------------12-12-|
Ab|-------------------------------------------------------------------------------------------|
Eb|-------------------------------------------------------------------------------------------|

Guitar 2:
eb|--------------------------------------------|
Bb|--------------------------------------------|
Gb|--------------------------------------------|
Db|--------------------------------------------|
Ab|-14~~~~~~~~~~~~~~~~~~~~~~~~~~--\5~~~~~~~~~~-|
Eb|-12~~~~~~~~~~~~~~~~~~~~~~~~~~--\3~~~~~~~~~~-|

====================================
Guitar 1:
eb|-----------------------------------------------------------------------------------------------|
Bb|-----------10-10-----------10-10-----------------------------12-12-10-10-12-12-----11-11-10-10-|
Gb|---------------------------------12-12-11-11-9-9-11-11-------------------------9-9-------------|
Db|-9-9-12-12-------9-9-12-12-----------------------------12-12-----------------------------------|
Ab|-----------------------------------------------------------------------------------------------|
Eb|-----------------------------------------------------------------------------------------------|

Guitar 2:
eb|--------------------------------------------|
Bb|--------------------------------------------|
Gb|--------------------------------------------|
Db|--------------------------------------------|
Ab|-14~~~~~~~~~~~~~~~~~~~~~~~~~~--\5~~~~~~~~~~-|
Eb|-12~~~~~~~~~~~~~~~~~~~~~~~~~~--\3~~~~~~~~~~-|

======================================
Guitar 1:
eb|-----------------------------------------------9-9-10-10-12-12-14-14-10-10-------------------|
Bb|-----------------------------10-10-----------------------------------------14-14-12-12-10-10-|
Gb|-12-12-11-11-----------------------12-12-11-11-----------------------------------------------|
Db|-------------12-12-9-9-12-12-----------------------------------------------------------------|
Ab|---------------------------------------------------------------------------------------------|
Eb|---------------------------------------------------------------------------------------------|

Guitar 2:
eb|--------------------------------------------|
Bb|--------------------------------------------|
Gb|--------------------------------------------|
Db|--------------------------------------------|
Ab|-14~~~~~~~~~~~~~~~~~~~~~~~~~~--\5~~~~~~~~~~-|
Eb|-12~~~~~~~~~~~~~~~~~~~~~~~~~~--\3~~~~~~~~~~-|

======================================

Guitar 1:
                                                                  1________
eb|---------------------------------------------------------------------------------|
Bb|---------------------------------------------------------------------------------|
Gb|----------14----------14----------14-11-12-11~~~~~~~~~---------------------------|
Db|----11-12-------11-12-------11-12----------------------------10b~~~~~~~~(10)-----|
Ab|-14----------14----------14---------------------------------x--------------------|
Eb|------------------------------------------------------x\x\x-----------------15p\-|

Guitar 2:
eb|----------------------------------------------------------------|
Bb|----------------------------------------------------------------|
Gb|----------------------------------------------------------------|
Db|----------------------------------------------------------------|
Ab|-9-------9---9----7---7---7---5~~~~--5----5----5-5--5---5---5p\-|
Eb|-7-------7---7-0--5---5---5---3~~~~--3----3----3-3--3---3---3p\-|
                ...                               ...

=====================================
Guitar 1:
                                                                                  1____
eb|--------------------------------------------------------------------------------------------|
Bb|--------------------------------------------------------------------------15-17b-17~(17)p15-|
Gb|----------14----------14----------14-12p11-11~~~12------------------14-16-------------------|
Db|----11-12-------11-12-------11-12------------------12-----12-14h/16-------------------------|
Ab|-14----------14----------14----------------------------14-----------------------------------|
Eb|--------------------------------------------------------------------------------------------|

Guitar 1:
                                                                                1_
eb|---------------------------------------------------------------------------------------|
Bb|---------------------------------------------------------------------------------------|
Gb|---------14----------14----------14-12p11-11~~~~-12------------------------------------|
Db|---11-12-------11-12-------11-12--------------------12-12------------------------------|
Ab|-14---------14----------14---------------------------------14-12-----------------------|
Eb|-----------------------------------------------------------------12--10-12-12b-(12)p10-|

Guitar 1:
                                                           .5
eb|----------------------------------------14-14-14-14-14-14b-14~~---------|
Bb|-------------------------------15-14-12---------------------------------|
Gb|----------14----------14-11-12----------------------------------16p\----|
Db|----11-12-------11-12---------------------------------------------------|
Ab|-14----------14---------------------------------------------------------|
Eb|--------------------------------------------------------------------/17-|

Guitar 1:
             1_____________________     1_   1_       1    1____
eb|------------------------------------------------------------------|
Bb|-------------------------------------------------10---10----------|
Gb|---------9b-9-9-9999999-9-9~~~9-(9)-9b-(9)b-(9)--12b--12b~~~~(12)-|
Db|------------------------------------------------------------------|
Ab|------------------------------------------------------------------|
Eb|-0-0-0-x----------------------------------------------------------|

Guitar 1:
      1_____________________________        1__  
eb|-------------------------------------------------------------|
Bb|-12----------------------------------------------------------|
Gb|-14b---14-14-14-14-14-14--14~~~~~(14)--14b--(14)-12p11-11~~~-|
Db|-------------------------------------------------------------|
Ab|-------------------------------------------------------------|
Eb|-------------------------------------------------------------|

Guitar 1:
            1_____________       1    1___        1_____
eb|-------------------------------------------------------------------|
Bb|-10-10--7-------7~~~~~~-----10---10----------12~~~~~~-----12-14-15-|
Gb|--------9b------9~~~~~~(9)--12b--12b---(12)--14b~~~~~(14)----------|
Db|-------------------------------------------------------------------|
Ab|-------------------------------------------------------------------|
Eb|-------------------------------------------------------------------|

Guitar 1:
     .5________________            1______    1_______   1    1_____   1_____
eb|-------------14----------------------------------------------------------------|
Bb|-14b~~~~~~~~~---14--(14)p12p\--7~~~~~~~---7~~~~~~~~-10---10~~~~~~-12~~~~~~-----|
Gb|-------------------------------9b~~~~~~---9b~~~~~~~-12b--12b~~~~~-14b~~~~~(14)-|
Db|----------------------------------------x--------------------------------------|
Ab|-------------------------------------------------------------------------------|
Eb|-------------------------------------------------------------------------------|

Guitar 1:
eb|-------------------------------------------------------------------------|
Bb|-------------------------------------------------------------------14-15-|
Gb|-12h14p12p11-11-12-14---------------------------------14h/16~~~~~~~------|
Db|----------------------12-11----------------------------------------------|
Ab|----------------------------14-12------------12h14-17--------------------|
Eb|----------------------------------14p12~~~10-----------------------------|

Guitar 1:
      1________________________________________________________________
eb|------------17-----------------------------------------------------------------|
Bb|-17b~~~~~~~~---17-17-17~~~~17~~~~~17~~~~~17~~17~~17~~17~~17~~17~~17-(17)h/24p\-|
Gb|-------------------------------------------------------------------------------|
Db|-------------------------------------------------------------------------------|
Ab|-------------------------------------------------------------------------------|
Eb|-------------------------------------------------------------------------------|


Guitar 2:
eb|----------------------------------------------------------------|
Bb|----------------------------------------------------------------|
Gb|----------------------------------------------------------------|
Db|----------------------------------------------------------------| x7
Ab|-9-------9---9----7---7---7---5~~~~--5----5----5-5--5---5---5p\-|
Eb|-7-------7---7-0--5---5---5---3~~~~--3----3----3-3--3---3---3p\-|
                ...                               ...

=====================================
Guitar 1:
                                                            .5__
eb|------------------------------------------------------------------------|
Bb|------------------------------------------------------------------------|
Gb|-11~~~~11-11-11-11-11-11-11-11-11V~~~~~~~~~~(11)p9p7h9p7p6b--(6)--------|
Db|-----------------------------------------------------------------9-7--7-|
Ab|--------------------------------------------------------------------9---|
Eb|------------------------------------------------------------------------|

Guitar 1:
     1_______________            1______________               1
eb|---------------------------------------------------------------------------------------|
Bb|----------------------0-10-10pb~~~~(10)V~~~~~------------------------------------------|
Gb|-9b~~~~~(9)V------(9)-0------------------------------------9b~~~(9)~~(9)V~~~~9~~~~~(9)-|
Db|---------------------------------------------x-x-x-x-x---------------------------------|
Ab|---------------------------------------------x-x-x-x-x-0-0-----------------------------|
Eb|-------------------------------------------------------0-0-----------------------------|

Guitar 1:
        .5____              1_______                  1_________
eb|---------------------------------------------------------------------------------|
Bb|-----------------------------------------7V-10V-10pbV~~~~~~~~(10)----------------|
Gb|-9p7p6b~~~~(6)----------9b~~~~~~~(9)V~~~~----------------------------------------|
Db|---------------9-7---7--------------------------------------------------x------x-|
Ab|-------------------9----------------------------------------------------x--0-0-x-|
Eb|------------------------------------------------------------------x\x\x-x--0-0-x-|
  
Guitar 1: 32nd notes.
eb|-0~~~~~14-15-14-12--14-14-15-14-12--12-15-12-14-15-14-12--------15-14-12--12-15-12-|
Bb|------------------15--------------15--------------------15-14-12--------15---------|
Gb|-----------------------------------------------------------------------------------|
Db|-----------------------------------------------------------------------------------|
Ab|-----------------------------------------------------------------------------------|
Eb|-----------------------------------------------------------------------------------|

Guitar 1: 32nd notes.
eb|-14-15-14-12----------------12-15-12-14-15-14-12--------15-14-15-14-12--12-15-12-14-15-14-12-|
Bb|------------15-14-12-14-x-x---------------------15-14-12--------------15---------------------|
Gb|------------------------x-x------------------------------------------------------------------|
Db|---------------------------------------------------------------------------------------------|
Ab|---------------------------------------------------------------------------------------------|
Eb|---------------------------------------------------------------------------------------------|

Guitar 1: 32nd notes.
eb|---------15-14-12-----15-14-14-15-14-12--12-15-12-14-15-14-12--------15-15-15-15-|
Bb|-15-14-12--------15-12-----------------15--------------------15-14-12------------|
Gb|---------------------------------------------------------------------------------|
Db|---------------------------------------------------------------------------------|
Ab|---------------------------------------------------------------------------------|
Eb|---------------------------------------------------------------------------------|

Guitar 1: 32nd notes.
eb|-14-15-14-12-15-12-15-12-15-12-14-15-14-12--------------------------------------|
Bb|------------------------------------------15-14-15-14-12---------------16-15-17-|
Gb|--------------------------------------------------------14--------14-17---------|
Db|----------------------------------------------------------17-16-17--------------|
Ab|--------------------------------------------------------------------------------|
Eb|--------------------------------------------------------------------------------|

Guitar 1: 32nd notes.
      1_______
eb|-------------------------------------------------------------------------------------------|
Bb|-17b~~~~~~~(17)-------15h17p15p14-15-19-15-17-19-17-15-14-12p11----------------------------|
Gb|----------------/16h18-----------------------------------------11-14-12-11-12-11-----11~~~~|
Db|--------------------------------------------------------------------------------12-14------|
Ab|-------------------------------------------------------------------------------------------|
Eb|-------------------------------------------------------------------------------------------|
                                                                  ......................

Guitar 1: 32nd notes.
eb|----------------------------------12h14p12-10-12-15-12-14-15-14-12------------------|
Bb|--------------------------12h14h15--------------------------------15-15-14-15-14-12-|
Gb|---------11h12h14-11-13-15----------------------------------------------------------|
Db|-11-12-14---------------------------------------------------------------------------|
Ab|------------------------------------------------------------------------------------|
Eb|------------------------------------------------------------------------------------|
    ........

Guitar 1: 32nd notes.
                                                                    1__________
eb|---------------------------------------------------------------------------------|
Bb|---------------------------------------------------------------------------------|
Gb|-14-12-11-14-12-11-12-11--------------------11h12h14--------11-14b~~~~~~~~~~(14)-|
Db|------------------------14-12-11-12-11-12-14--------11h12h14---------------------|
Ab|---------------------------------------------------------------------------------|
Eb|---------------------------------------------------------------------------------|
                           ....................

Guitar 1: Use a killswitch button.
            !!!!!!!!!!!!!!!!!!!!!!!!!!!!!!!!!!!!!!!!!!!!!!!!!!!!!!!!!!!!!!!!!!!!!!!!!!!!!!!!
eb|------------------------------------------------------------------------------------------------|
Bb|------------------------------------------------------------------------------------------------|
Gb|-14-12-11---------------------------------------------------------------------------------------|
Db|---------14p12------------------------------14h16-16p14h16--------------------------19-19p16~~~~|
Ab|--------------14p12-----------------12h14p12--------------14-14-14-14-14-14-16-16-17------------|
Eb|-------------------14p12-12p10h12h14------------------------------------------------------------|

Guitar 1:
eb|------------|
Bb|------------|
Gb|------------|
Db|--------0-0-|
Ab|--------0-0-|
Eb|--/21p\-0-0-|


Guitar 2:
eb|----------------------------------------------------|
Bb|----------------------------------------------------|
Gb|----------------------------------------------------|
Db|----------------------------------------------------| x8
Ab|-9-----9~~~~------12--12----5~~~~--5-----5--5--5--5-|
Eb|-7-----7~~~~---0--10--10----3~~~~--3-----3--3--3--3-|
                  .

========================================
Guitar 1:
                                                      1___
eb|--------------------------------------------------------------------------|
Bb|--------------------------------------------------------------------------|
Gb|----------14----------14----------14-11h12-11~~~~~9b~~~(9)~~~(9)V~~~~-----|
Db|----11-12-------11-12-------11-12------------------------------------12p\-|
Ab|-14----------14----------14-----------------------------------------------|
Eb|--------------------------------------------------------------------------|

Guitar 1:
eb|------------------------------------------------------------|
Bb|------------------------------------------------------------|
Gb|----------14----------14----------14-11-12-11~~~~~(11)p\/17-|
Db|----11-12-------11-12-------11-12---------------------------|
Ab|-14----------14----------14---------------------------------|
Eb|------------------------------------------------------------|

Guitar 1: 32nd notes.
eb|------------------------14----------------------------------------------------|
Bb|-14-15-14-15-17-15-14-15--15-17-14-17-15-14-----------------------------------|
Gb|-------------------------------------------16-15-14---------------------------|
Db|---------------------------------------------------17-16-17p16p14--17p14-16~~~|
Ab|-----------------------------------------------------------------17-----------|
Eb|------------------------------------------------------------------------------|

Guitar 1:
                                                        1__         1___
eb|------------------------------------------------------------17------------|
Bb|-------------------------------------------------0-17b~~(17)---17b~~~(17)-|
Gb|----------14----------14----------14-11h12-11~~~~0------------------------|
Db|----11-12-------11-12-------11-12-----------------------------------------|
Ab|-14----------14----------14-----------------------------------------------|
Eb|--------------------------------------------------------------------------|

Guitar 1:
eb|---------12h14h15--12-15-12-14-15-14-12---------------------------------------------|
Bb|-12h14h15--------15--------------------15-14-12-------------------------------------|
Gb|---------------------------------------------------------14----------14----------14-|
Db|---------------------------------------------------11-12-------11-12-------11-12----|
Ab|------------------------------------------------14----------14----------14----------|
Eb|------------------------------------------------------------------------------------|

Guitar 1:
eb|-------------------------------------------|
Bb|-------------------------------------------|
Gb|-11-12-11~~~~~--------7--9-11-11h15-16~~~~-|
Db|--------------7-9--11----------------------|
Ab|-------------------------------------------|
Eb|-------------------------------------------|


Guitar 2:
eb|---------------------------------------------------------|
Bb|---------------------------------------------------------|
Gb|---------------------------------------------------------|
Db|---------------------------------------------------------| x4
Ab|-9~~~~~~~--12~~~~~~~~--5~~~~~~~~~5--5~~~~~~~~~--5-5--5h/-|
Eb|-7~~~~~~~--10~~~~~~~~--3~~~~~~~~~3--3~~~~~~~~~--3-3--3h/-|

===================================
Guitar 1:
         1______________________________________
eb|----------17---------------------------------------------------------|
Bb|-x--17b------17-17~~~~~~17~~~17~~~~~(17)V~~~~(17)----------------0-0-|
Gb|-x---------------------------------------------------------x-x---0-0-|
Db|-----------------------------------------------------------x-x-------|
Ab|-------------------------------------------------x/x-x/-x/-x-x-0-----|
Eb|---------------------------------------------------------------0-----|

Guitar 1:
                                                              1      1___
eb|-------------------------------------------19-19p17----------17------------|
Bb|---------------------------------------------------19-17-17b----17b~~~(17)-|
Gb|-16~~~16~~~~(16)V~~~~~~~~--------------------------------------------------|
Db|---------------------------------------------------------------------------|
Ab|-------------------------x\x\x\x\------0-0---------------------------------|
Eb|-------------------------x\x\x\x\-17p\-0-0---------------------------------|

Guitar 1:
                            1__
eb|----------------------------------15-14h15p14p12--12-15-12-14h15p14p12------|
Bb|-----20-17-19p17-15-17-20b~~(20)----------------15--------------------15-14-|
Gb|-/17------------------------------------------------------------------------|
Db|----------------------------------------------------------------------------|
Ab|----------------------------------------------------------------------------|
Eb|----------------------------------------------------------------------------|

Guitar 1:
                                          1__
eb|--------------------------------------------------------------------------------|
Bb|-15-14-12--------------------------------------------------------------12-14-15-|
Gb|---------14-12-11-12-12-11-12-11-----11b--(11)--------11-12-14-11-12-15---------|
Db|--------------------------------14-14---------11-12-14--------------------------|
Ab|--------------------------------------------------------------------------------|
Eb|--------------------------------------------------------------------------------|
                     ...................         ........

Guitar 1:
eb|-12h14p12-10-12-15-12-14-15-14-12--------------12-14-15--------12-15-12-14-15-14-12-|
Bb|---------------------------------15-14-12-14-15--------12-14-15---------------------|
Gb|------------------------------------------------------------------------------------|
Db|------------------------------------------------------------------------------------|
Ab|------------------------------------------------------------------------------------|
Eb|------------------------------------------------------------------------------------|

Guitar 1:
eb|--------------------------------------------------------------------------------|
Bb|-15-14-15-14-12-----------------------------------------------------------------|
Gb|---------------14-12-11-12-11-12-11--------------11-12-11-12-14--------11-12-14-|
Db|-----------------------------------14-12-11-12-14--------------11-12-14---------|
Ab|--------------------------------------------------------------------------------|
Eb|--------------------------------------------------------------------------------|
                           ..............................         ........

Guitar 1:
eb|-----------------------------------------------------------------------------|
Bb|---------12-14-12-15-12-15-12-14-14~~12--------------------------------------|
Gb|-11-12-15------------------------------14-11-12-12-11-12-11------------------|
Db|-----------------------------------------------------------14-12-11-11-12-11-|
Ab|-----------------------------------------------------------------------------|
Eb|-----------------------------------------------------------------------------|
                                          .....................................

Guitar 1:
                               .5_____       1
eb|------------------------------------------------------------|
Bb|------------------------------------------------------------|
Gb|----------------------------9b~~~~~(9)--9pb--9V~~~~~~~~~~~~~|
Db|------------------------------------------------------------|
Ab|-14-12-10--10-----------------------------------------------|
Eb|---------14---14-12-10-9--7---------------------------------|
    .......................

Guitar 1: 
    !!!!!!!!!!!!!!!!!!!!!!  1_________________________   1___________
eb|------------------------------------------------------------------------|
Bb|------------------------7-----------------------------------------------|
Gb|-9-9p7-7p6-6------------9b~~~~~~~~~~(9)V~~~~~~~9V~~(9)bV~~~~~9V~~~(9)p7-|
Db|------------9-9-7-7-7p5-------------------------------------------------|
Ab|------------------------------------------------------------------------|
Eb|------------------------------------------------------------------------|

Guitar 1:
     1_______________________                     1___
eb|----------------------------------------------------------------|
Bb|----------------------------------------------------------------|
Gb|-9b~~~~~(9)V~~~~~~~~~9V~~~(9)--0--------------------------------|
Db|-------------------------------0-9-9-9-7------------------------|
Ab|-----------------------------------------9-7--------------------|
Eb|---------------------------------------------10b~~~(10)-3h7-7~~~|

Guitar 1:
eb|------------------------------------------------------|
Bb|------------------------------------------------------|
Gb|-----------------------------7-9h11-11~~~~~~~~~~~~~~9-|
Db|-------------------------7-9--------------------------|
Ab|--------------5-----5h7h9-----------------------------|
Eb|-10-7-10-9~~~~--5~~7----------------------------------|


Guitar 2:
eb|----------------------------------------------------|
Bb|----------------------------------------------------|
Gb|----------------------------------------------------|
Db|----------------------------------------------------| x8
Ab|-9-----9~~~~------12--12----5~~~~--5-----5--5--5--5-|
Eb|-7-----7~~~~---0--10--10----3~~~~--3-----3--3--3--3-|
                  .

========================================================
Guitar 1:
eb|-------9-9-10-10-------12-12-10-10-9-9-10-10-------9-9-------------------------------10-10-|
Bb|-----------------12-12-----------------------12-12-----------10-10-------------------------|
Gb|-11-11-------------------------------------------------11-11-------12-12-11-11-12-12-------|
Db|-------------------------------------------------------------------------------------------|
Ab|-------------------------------------------------------------------------------------------|
Eb|-------------------------------------------------------------------------------------------|

Guitar 2:
eb|--------------------------------------------|
Bb|--------------------------------------------|
Gb|--------------------------------------------|
Db|--------------------------------------------|
Ab|-14~~~~~~~~~~~~~~~~~~~~~~~~~~--\5~~~~~~~~~~-|
Eb|-12~~~~~~~~~~~~~~~~~~~~~~~~~~--\3~~~~~~~~~~-|

====================================
Guitar 1:
eb|-------12-12-9-9-------10-10-12-12-9-9-10-10-9-9-------------------------------------------|
Bb|-------------------------------------------------10-10-------------8h10-10-8-8-------------|
Gb|-11-11-----------11-11---------------------------------11-11-12-12-------------11-11-------|
Db|-------------------------------------------------------------------------------------12-12-|
Ab|-------------------------------------------------------------------------------------------|
Eb|-------------------------------------------------------------------------------------------|

Guitar 2:
eb|--------------------------------------------|
Bb|--------------------------------------------|
Gb|--------------------------------------------|
Db|--------------------------------------------|
Ab|-14~~~~~~~~~~~~~~~~~~~~~~~~~~--\5~~~~~~~~~~-|
Eb|-12~~~~~~~~~~~~~~~~~~~~~~~~~~--\3~~~~~~~~~~-|

====================================
Guitar 1:
eb|-----------------------------------------------------------------------------------------------|
Bb|-----------10-10-----------10-10-----------------------------12-12-10-10-12-12-----11-11-10-10-|
Gb|---------------------------------12-12-11-11-9-9-11-11-------------------------9-9-------------|
Db|-9-9-12-12-------9-9-12-12-----------------------------12-12-----------------------------------|
Ab|-----------------------------------------------------------------------------------------------|
Eb|-----------------------------------------------------------------------------------------------|

Guitar 2:
eb|--------------------------------------------|
Bb|--------------------------------------------|
Gb|--------------------------------------------|
Db|--------------------------------------------|
Ab|-14~~~~~~~~~~~~~~~~~~~~~~~~~~--\5~~~~~~~~~~-|
Eb|-12~~~~~~~~~~~~~~~~~~~~~~~~~~--\3~~~~~~~~~~-|

======================================
Guitar 1:
eb|-----------------------------------------------9-9-10-10-12-12-14-14-10-10-------------------|
Bb|-----------------------------10-10-----------------------------------------14-14-12-12-10-10-|
Gb|-12-12-11-11-----------------------12-12-11-11-----------------------------------------------|
Db|-------------12-12-9-9-12-12-----------------------------------------------------------------|
Ab|---------------------------------------------------------------------------------------------|
Eb|---------------------------------------------------------------------------------------------|

Guitar 2:
eb|--------------------------------------------|
Bb|--------------------------------------------|
Gb|--------------------------------------------|
Db|--------------------------------------------|
Ab|-14~~~~~~~~~~~~~~~~~~~~~~~~~~--\5~~~~~~~~~~-|
Eb|-12~~~~~~~~~~~~~~~~~~~~~~~~~~--\3~~~~~~~~~~-|


========================================
Guitar 1:
eb|-7-7-------------------------------------------------------------------------|
Bb|---------7-7-----------------------------------------------------7-7-----7-7-|
Gb|-----9-9---------7-7-----------------------------------------------------7-7-|
Db|-------------9-9-----------7-7---------------------------7-9~~~9-----9-9-----|
Ab|---------------------10-10-----10-9~~~~~---------5-7-7h9---------------------|
Eb|----------------------------------------10-9-5-7-----------------------------|
                                                                            ...

Guitar 1:
eb|-----------------------------------------------------------------------------|
Bb|-----------------------------------------------------------------------------|
Gb|-----7-----------2h4~~~~/7---7-6-7-6--------------------------14----------14-|
Db|-5-5---5-4-5-4-4-----------9---------9-7----------------11-12-------11-12----|
Ab|-----------------------------------------9p7-7-------14----------14----------|
Eb|-----------------------------------------------10-10-------------------------|


Guitar 1:
eb|--------------------------------------------------------------------------|
Bb|--------------------------------------------------------------------------|
Gb|----------14-12p11-11~~~12---------------------------------------------14-|
Db|----11-12------------------12~~----------------------------------11-12----|
Ab|-14----------------------------14-12--------------------------14----------|
Eb|-------------------------------------14p12-10-12~~~(12)h/14~~~------------|

Guitar 1:
eb|-----------------------------------------------------------------------------------|
Bb|-------------------------------------------------------12~~~-----------------------|
Gb|----------14----------14-11-12-11~~~~(11)V~~~~-----x-0------14-12-11--12-----------|
Db|----11-12-------11-12------------------------------x-0-------------------12~~------|
Ab|-14----------14-------------------------------x/x/---------------------------14~~~~|
Eb|-----------------------------------------------------------------------------------|

Guitar 1:
    !!!!!!!!!!!!!!!!!!!!!!!
eb|-----------------------------------------------------------------------------------------------|
Bb|-----------------------------------14~~~14h15p14-12--------------------------------------------|
Gb|-------------------------------0-x------------------14--11h14-14h16----------------------------|
Db|-------------------------------0-x----------------------------------12~~~14-14h16--------------|
Ab|-12h14-14-14-14-12h14-14~~~~~~----------------------------------------------------14-14p12~~~~~|
Eb|-----------------------------------------------------------------------------------------------|

Guitar 1:
                                                                        .5___
eb|----------------------------------------------------------------------------------|
Bb|-12~~~~12-----------------------------------------------------14~~~~14b~~~(14)p12-|
Gb|----------14p12-11-12-------------------------------------------------------------|
Db|----------------------12~~--------------------------------------------------------|
Ab|--------------------------14~~~-12---------------------12~~~~~--------------------|
Eb|-----------------------------------14p12p10-12-12h14~~~---------------------------|

Guitar 1:
eb|---------------------------------------------------------|
Bb|---------------------------------------------------------|
Gb|-14p11-11h12---------------------------------------------|
Db|-------------12-------------12~~~------------------------|
Ab|-----------------14~~~~14~~~-----x/x/-----/10p\------x-x-|
Eb|---------------------------------x/x/-12p\-----/20p\-x-x-|

Guitar 1:
eb|-----------------------------------------------------------------------------------|
Bb|-----------------------------------------------------------------------------------|
Gb|----------14----------14----------14-12-11-11~~~~12--------------------------------|
Db|----11-12-------11-12-------11-12-------------------12--12~~~--------------------x-|
Ab|-14----------14----------14----------------------------------14p12-10-9h10p9~~~~~x-|
Eb|-----------------------------------------------------------------------------------|

Guitar 1:
                                            .5________________
eb|-------------------------------------------------14----------------------------------|
Bb|----------------------------------------14b~~~~~~---14-14~~(14)p12-14-12----12-------|
Gb|----------14----------14----------14-11----------------------------------14----------|
Db|----11-12-------11-12-------11-12----------------------------------------------12~~~~|
Ab|-14----------14----------14----------------------------------------------------------|
Eb|-------------------------------------------------------------------------------------|

Guitar 1:
     1         1___         1   .5    1_____
eb|-----7-7---------------------------------------------------------------------|
Bb|----------10b~~~(10)--10pb-10pb-10pb~~10-(10)--10--10h12~~~------------------|
Gb|-9b--------------------------------------------------------11~~~~~~12--------|
Db|----------------------------------------------------------------------12--12-|
Ab|-----------------------------------------------------------------------------|
Eb|-----------------------------------------------------------------------------|

Guitar 1:
                          1______         1___ 
eb|-------------------7------------------------------------------------------|
Bb|-----------------7---10b~~~~~~(10)--10pb~~~(10)--8h10p8-7-8-10------------|
Gb|-9h10p9p7-9p7-7h9----------------------------------------------7-6-7------|
Db|-------------9-------------------------------------------------------9~~~~|
Ab|--------------------------------------------------------------------------|
Eb|--------------------------------------------------------------------------|

Guitar 1:
                                                                         1_______
eb|-----------------------------------------------------------------------------------|
Bb|-----------------------------------------------------7h8h10-7-10-10-10b~~~10~~(10)-|
Gb|------------------------------------------6h7h9-6h7h9------------------------------|
Db|-7h9p7-------------------------5h7h9-5h7h9-----------------------------------------|
Ab|-------9p7----------5h7h9-5h7h9----------------------------------------------------|
Eb|-----------9p7p5h7h9---------------------------------------------------------------|

Guitar 1:
                                                  .5      .5_
eb|----------------------------------------10----12b-10-12pb-(12)-10----|
Bb|-8h10p8-7-8-10--------------------------10-10---------------------12-|
Gb|-----------------------------9----11-11------------------------------|
Db|---------------12p11-9~~~~11---12------------------------------------|
Ab|---------------------------------------------------------------------|
Eb|---------------------------------------------------------------------|

Guitar 1:
                                                          1__________________________
eb|----------------------------------------------------------17----------------------|
Bb|-12V~~~~~~~14V~~~~~15V~~~~~~17V~~~~/20V~~~~~19~~~~~x-17b~~~~~17-17-17-17-17-17-17-|
Gb|---------------------------------------------------x------------------------------|
Db|----------------------------------------------------------------------------------|
Ab|----------------------------------------------------------------------------------|
Eb|----------------------------------------------------------------------------------|

Guitar 1:
   1_________________________________________________________________________________
eb|-----------------------------------------------------------------------------------|
Bb|-17-17-17-17~~~17-17-17-17-17-17-17-17-17-17-17-17-17-17-17-17-17-17-17-17--17--17-|
Gb|-----------------------------------------------------------------------------------|
Db|-----------------------------------------------------------------------------------|
Ab|-----------------------------------------------------------------------------------|
Eb|-----------------------------------------------------------------------------------|

Guitar 1:
      1__                         1______
eb|--------------14-----------------------------------7h9p7--7-10-7-9-10-9-7-----------------|
Bb|-17b~~(17)-15-14----15-----------------------7h8h10-----10---------------10-8-7-8-7-8p7p5-|
Gb|-----------------16-----16p\--------------------------------------------------------------|
Db|-----------------------------14b~~~~~~(14)~~~---------------------------------------------|
Ab|------------------------------------------------------------------------------------------|
Eb|------------------------------------------------------------------------------------------|

Guitar 1:
eb|----------------------------------------------------------------7h9p7--7-10-7-9-10-9-7-|
Bb|---------------------------------------------------7h8h10-7h8h10-----10----------------|
Gb|-7-6-6-7-6-4-4-7-4-6-7-6-4---------------7h9-6-7-10------------------------------------|
Db|------------7-------------7-5-5-7-9-5-7-9----------------------------------------------|
Ab|---------------------------------------------------------------------------------------|
Eb|---------------------------------------------------------------------------------------|

Guitar 1:
eb|-----------9-11-13-----14-14-14-14-12-14-12-----------------12h14h15--------12-15-12-14-15-14-12|
Bb|10-8-9-10-12------10-12--------------------15-14-12-12-14-15--------12-14-15--------------------|
Gb|------------------------------------------------------------------------------------------------|
Db|------------------------------------------------------------------------------------------------|
Ab|------------------------------------------------------------------------------------------------|
Eb|------------------------------------------------------------------------------------------------|

Guitar 1:
                           1______                   1__
eb|---------------------------------------------------------------------------|
Bb|-15-14-14-15-14-12--12-----------------------------------------------------|
Gb|------------------14--14b~~~~~~(14)~~~~~~~~--------------------------------|
Db|---------------------------------------------------------------------------|
Ab|-------------------------------------------0----------x/x/x/-------------0-|
Eb|-------------------------------------------0-1h/20b~~~------x/x/x/-x-x-0-0-|

Guitar 1:
                       T  M  T                         T     T                            T
eb|-14p10--------10h14-19-22-19p14p10h14p10------10h14-21p14-21p14p10h14p10------10h14-17-20p17-|
Bb|------12p11-12--------------------------12--12--------------------------12--12---------------|
Gb|------------------------------------------11------------------------------11-----------------|
Db|---------------------------------------------------------------------------------------------|
Ab|---------------------------------------------------------------------------------------------|
Eb|---------------------------------------------------------------------------------------------|

Guitar 1:
     .5____
eb|----------------12h14p12p10-12-10-9-10-9-10-------------------------------------------|
Bb|-19b~~~~(19)~~~~-------------------------10---10--------------------------------------|
Gb|--------------------------------------------12--12p11--12--11~~~~~~~~11h14------------|
Db|-----------------------------------------------------12--12---------------------------|
Ab|------------------------------------------------------------------------------x/x/x/x-|
Eb|--------------------------------------------------------------------------------------|

Guitar 1:
                          T  M  T        T                   T  M     M                1___
eb|---10h14p10------10h14-19-22-19p14p10-21p14p10------10h14-19-21p14-21p14p10----12-14b~~~(14)-|
Bb|-12--------12--12-----------------------------12--12-----------------------12----------------|
Gb|-------------11---------------------------------11---------------------------11--------------|
Db|---------------------------------------------------------------------------------------------|
Ab|---------------------------------------------------------------------------------------------|
Eb|---------------------------------------------------------------------------------------------|

Guitar 1:
      .5   .5             .5
eb|-14pb--14b------------------------------------------------------------------------------|
Bb|-----------12-12p\7---------------------------------------------------------------------|
Gb|--------------------9-9pb-9-----7--7--------------14----------14----------14-11-12-11~~~|
Db|-----------------------------0-----x--x-----11-12-------11-12-------11-12---------------|
Ab|-----------------------------0-----5--x--14----------14----------14---------------------|
Eb|----------------------------------------------------------------------------------------|

Guitar 1:
      1____________
eb|--------14~14~~~--------------------------------------------------------------------------|
Bb|-14b~~~~---14~~~(14)h15p14p12-------------------------------------------------------------|
Gb|-----------------------------14-11-11~~~-----------14----------14----------14-12p11-11~~~~|
Db|----------------------------------------x----11-12-------11-12-------11-12----------------|
Ab|----------------------------------------x-14----------14----------14----------------------|
Eb|------------------------------------------------------------------------------------------|

Guitar 1:
     1                                                                       1
eb|----------------------------------------------------------------------------------------------|
Bb|-7~~~~~~(7)V~~~~~~-x--------------------------------------------------------------------------|
Gb|-9b~~~~~(9)V~~~~~~-x----------14----------14----------14-11-12-11~~~~~~--9b~~~~~~~(9)V~~~~(9)-|
Db|------------------------11-12-------11-12-------11-12------------------x----------------------|
Ab|---------------------14----------14----------14------------------------x----------------------|
Eb|----------------------------------------------------------------------------------------------|

Guitar 1:
                                                                  .5________
eb|-----------------------------------------------------------------------------|
Bb|-----------------------------------------------------------------------------|
Gb|----------14----------14----------14-11-12-11~~~~11p9-9p\7-7p6-6b~~~~~~~~(6)-|
Db|----11-12-------11-12-------11-12--------------------------------------------|
Ab|-14----------14----------14--------------------------------------------------|
Eb|-----------------------------------------------------------------------------|

Guitar 2:
eb|----------------------------------------------------|
Bb|----------------------------------------------------|
Gb|----------------------------------------------------|
Db|----------------------------------------------------| x24
Ab|-9-----9~~~~------12--12----5~~~~--5-----5--5--5--5-|
Eb|-7-----7~~~~---0--10--10----3~~~~--3-----3--3--3--3-|
                  .

==========================================================
Ending:

Guitar 1:
eb|--------------------------------------------------------|
Bb|--------------------------------------------------------|
Gb|--------------------------------------------------------|
Db|-9~~~~~~~~~(9)V~~~~~~~~~~~~~~~~~~~~~(9)\----------------|
Ab|--------------------------------------------------------|
Eb|--------------------------------------------------------|

Guitar 2:
eb|--------------------------------------------------------|
Bb|--------------------------------------------------------|
Gb|--------------------------------------------------------|
Db|--------------------------------------------------------|
Ab|-9~~~~~~~~~~~~~~~~~~~~~~~~~~~~~~~~~~--------------------|
Eb|-7~~~~~~~~~~~~~~~~~~~~~~~~~~~~~~~~~~--------------------|

That's It.

Please Rate and Comment My Tab.
Thanks.
[travis]
Tap to rate this tab
# A B C D E F G H I J K L M N O P Q R S T U V W X Y Z