Song name
# A B C D E F G H I J K L M N O P Q R S T U V W X Y Z

Buckethead - Little Gracie tab

                                   ¨Buckethead¨

                                  _Little Gracie_


From the album 'Acoustic Shards'
(the name on the album says 'who me?'
but this is actually 'Little Gracie'
The names got mixed up when making the album
it's this song http://www.youtube.com/watch?v=YMkf8v3KdFk

my cover http://www.youtube.com/watch?v=q8WAH-rYL0E

Tuning: Half Step down

A. Intro repeat2x
------------------------------------------------0--------------|
---3-----3---------3--3-----3---------3---1-------1---0h1-1~---|
-----0-----0-----0------0-----0-----0-------0-------0-----0~---|
-------0-----0h2----------0-----0h2-----------2-----------2~---|
------------------------------------------3---------------3~---|
--3-------------------3----------------------------------------|

B.
--------------------------5~----3-----3--2-----2----------2~---|
--3-----3-------3---3-------------5--------3------0-1-----3~---|
----0-----0---0-------0-------------4--------2--------0~--2~---|
------4-----4-----------4-------2--------0----------------0~---|
--5---------------5-------------------------------3------------|
---------------------------------------------------------------|

--3-----3--2---5~-----------3~--2~----------|
----5--------3----------0h1-----------------|
------4-------------------------------------|
--2--------0---------2----------------------|
-------------------3------------------------|
--------------------------------------------|

Back to intro

C.

-----------------------------------------------------------------|
--0-------1-------1--1------/3-------3--3-----5---7----8---------|
----0-------0---0------0-------0---0------0-----0---0------------|
------0h2-----2----------2-------4----------4--------------------|
-----------------------------------------------------------------|
--3------------------3-------------------------------------------|


-----------------------10-----10-----10~--10-----10-----8~----|
--8-----8-----8-----------8------8-----------8------8---------|
----0-----0-----0------0----0------0------0----0------0-------|
------9-----9-------------------------------------------------|
--------------------------------------------------------------|
--------------------------------------------------------------|


--7-----7-----7---7-------7--------------3----------------------------|
----8-----7h8---8---8p7h8---8------1-------1---1h3--/3-----5p3----3---|
------9-----------------------9~-----0-------0---------0-------0------|
---------------------------------------2-----------------4-------4----|
----------------------------------------------------------------------|
----------------------------------------------------------------------|

                           TH
-------------------------3(15)~------|
----0----1-----1p0-------------------|
------0----0---------0~--------------|
-------------2-------0~--------------|
---------------------2~--------------|
--3------------------3~--------------|


Back to intro

then at 1:57

-------------------------------------------------------------|
--0-------1-------1--1------/3-------3--3-------5-------7~~--|
----0-------0---0------0-------0---0------0-------0----------|
------0h2-----2----------2-------4----------4h5-----5/7------|
-------------------------------------------------------------|
--3------------------3---------------------------------------|

                         TH
----------------10~~-------------------|
-------------8---------8(20)~~---------|
----------0----------------------------|
-------9-------------------------------|
---10----------------------------------|
---------------------------------------|


PLEASE RATE THIS!!!
Tap to rate this tab
# A B C D E F G H I J K L M N O P Q R S T U V W X Y Z