Song name
# A B C D E F G H I J K L M N O P Q R S T U V W X Y Z

Buckethead - Brewer In The Air tab

I know this isn't 100% correct, but it sounds good.


e|---------------------------------------------------------------------------|
B|---------------------------------------------------------------------------|
G|-------------------------------------------------------------------X2------|
D|--2p0-----------------------4----4-----------------------------------------|
A|------3p2-----------------2----2----2--------------------------------------|
E|0----------0---2-3-2-3--0----3----3----------------------------------------|

e|---------------------------------------------------------------------------|
B|---------------------------------------------------------------------------|
G|---------------------------------------0h2---------0h2-------------X4------|
D|-0p2--2-2---2-2-2---0p2----2-2------0h2---0h2---0h2---0h2------------------|
A|-0----0-0---0-0-0---0------0-0---0h2---------0h2---------------------------|
E|---------------------------------------------------------------------------|

e|-------------------------------------------------------------------------------|
B|-------------------------------------------------------------------------------|
G|-------7/9~--7-5-4-5-0----------7/9--7--5-----7--------------------------------|
D|-----5------------------------5-----------x0x---4------------------------------|
A|---7-----------------------7---------------------------------------------------|
E|-0-----------------------0-----------------------------------------------------|
Tap to rate this tab
 
# A B C D E F G H I J K L M N O P Q R S T U V W X Y Z