Song name
# A B C D E F G H I J K L M N O P Q R S T U V W X Y Z

Buckethead - For Mom tab

-------------------------------------------------------------------------------
			For mom (early version) - Buckethead
-------------------------------------------------------------------------------
Hey there, this is my attempt of tabing out the song. Iīve arranged it for one
guitar, so itīs easier to play alone :) At the record there are two i belive.
The chords upon the tablature shows what "chord-grip" you should have(arpeggios).
Corrections etc can be sent to my e-mail: Ola_1376@hotmail.com. Cheers!
-------------------------------------------------------------------------------

Tuning: standard


 INTRO:
  
  G#                   G#m                 E             G#
e|---------------------------------------------------0-----------------------|
B|--------4--------4----------4--------4-----------0-0---------4--------4----|
G|----------5------5--------4---4------4---------1-------------5-5------5----|
D|-----6-----6-----6------6-------6----6-------2-------------6-----6----6----|
A|---6---------6---6----------------6--6-----2-------------6---------6--6----|
E|-4---------------4----4--------------4---0-------------4--------------4----|

 
 PART I:
 
    G#m                        
e|-------------------------|------------|
B|--------4--------4-------|------------|
G|--------4--------4-------|------------|
D|------6--------6---------|-6-------6--|
A|----6--------6-----------|-6-------6--|
E|--4--------4--------2-2--|-4---2-2-4--|
   _______________________
       play seven times

 
 PART II:  (sounds pretty thin on a single guitar)
  
e|-------------------------------------------------------|----------------|
B|-4-4-4-4-4-4-4-0-0-0-0-0-0-0-0-------------------------|----------------|
G|-------------------------------------------------------|---------4------|
D|--------------------------------4--4---2-2--2--2-2--4--|----6---4-4-----|
A|-------------------------------------------------------|----6--6---6----|
E|-------------------------------------------------------|-2--4-----------|
      _______________________________________________      _______________
                       play two times                       play two times

 CHORD-PART:

 Listen to the song to cath the tempo.

 |c5 /// | A#5 /// | G#5 /// | G#5 ///|
 |c5 /// | A#5 /// | G#5 /// | A#5 ///|
 |c5 /// | A#5 /// | G#5 /// | A#5 ///|


  OUTRO:

e|---------------------------------------------------------------------------------|
B|11---11---8-9-11-9-8-----8-------------8---------------11-11-11---11---11-8-9-11-|
G|---------------------10----10---7-8-10----8--------------------------------------|
D|---------------------------------------------------------------------------------|
A|---------------------------------------------10-8--------------------------------|
E|---------------------------------------------------------------------------------| 
                                                              D#5
e|---------------------------------------------------------------------------|
B|-8-9-11-11--8-9-11-9-8----8-------------8----------------------------------|
G|-----------------------10---10---7-8-10---------------------8--------------|
D|------------------------------------------------------------8--------------|
A|-------------------------------------------10-8-6---10-8-6--6--------------|
E|---------------------------------------------------------------------------|

===============================================================================
Tap to rate this tab
 
# A B C D E F G H I J K L M N O P Q R S T U V W X Y Z