Song name
# A B C D E F G H I J K L M N O P Q R S T U V W X Y Z

Buckethead - Night Of The Slunk tab

I didn't do a very good attempt at the solo, meh!
If you can figure out the solo please send it to me @ agentphill@hotmail.co.uk!
Cheers :)


Riff 1. x16 (The first 8 times is played without distortion with a clean
acoustic sound and the last 8 times is played with distortion)

e------------------------------------|-------------------------------------|
B------------------------------------|-------------------------------------|
G------------------------------------|-------------------------------------|
D------------------------------------|-------------------------------------|
A------------------------------------|-------------------------------------|
E-12-0-0-12-0-12-0-12-0-0-7-0-7-0-0-0|-10-0-0-10-0-10-0-10-0-0-8-0-8-0-0-0-|

Riff 2. x4 (Played with distortion)

e------------------------|------------------------|
B------------------------|------------------------|
G------------------------|------------------------|
D--4-x-4-4/5-------------|--4-x-4-4/5-------------|
A--4-x-4-4/5-------------|--4-x-4-4/5-------------|
E--2-x-2-2/3-2h3p2h3p2h3-|--2-x-2-2/3-5h6p5h6p5h6-|

Riff 1. x16 (The first 8 times is played without distortion with a clean
acoustic sound and the last 8 times is played with distortion)

e------------------------------------|-------------------------------------|
B------------------------------------|-------------------------------------|
G------------------------------------|-------------------------------------|
D------------------------------------|-------------------------------------|
A------------------------------------|-------------------------------------|
E-12-0-0-12-0-12-0-12-0-0-7-0-7-0-0-0|-10-0-0-10-0-10-0-10-0-0-8-0-8-0-0-0-|

Riff 2. x4 (Played with distortion)

e------------------------|------------------------|
B------------------------|------------------------|
G------------------------|------------------------|
D--4-x-4-4/5-------------|--4-x-4-4/5-------------|
A--4-x-4-4/5-------------|--4-x-4-4/5-------------|
E--2-x-2-2/3-2h3p2h3p2h3-|--2-x-2-2/3-5h6p5h6p5h6-|

Riff 3. x8 (Played with Sitar sounding effects)

e--------------------|
B--------------5~----|
G--5-5-5---6-5---6-5-|
D--4-4-4-------------|
A--3-3-3-3-----------|
E--------------------|

Riff 4. x4

e------------------------------------------|
B------------------------------------------|
G------------------------------------------|
D------------------------------------------|
A--12-12-12-12-12-12-12-12-9-9-9-9-9-9-9-9-|
E------------------------------------------|

e-------------------------------------------|
B-------------------------------------------|
G-------------------------------------------|
D-------------------------------------------|
A-11-11-11-11-11-11-11-11-8-8-8-8-8-8-8-8-8-|
E-------------------------------------------|

Riff 1. x8 (Played without distortion). After the 8th time the solo kicks in, but this
is kept playing underneath the solo)

e------------------------------------|-------------------------------------|
B------------------------------------|-------------------------------------|
G------------------------------------|-------------------------------------|
D------------------------------------|-------------------------------------|
A------------------------------------|-------------------------------------|
E-12-0-0-12-0-12-0-12-0-0-7-0-7-0-0-0|-10-0-0-10-0-10-0-10-0-0-8-0-8-0-0-0-|

Solo

e-----------12b-12-12-10-10~------------12-12-12-12~12-14-15-15-15-14-12-10-|
B-8~8~8~--------------------12-10-8---8~~-----------------------------------|
G-------9-9~------------------------9---------------------------------------|
D---------------------------------------------------------------------------|
A---------------------------------------------------------------------------|
E---------------------------------------------------------------------------|


e-----12~~12-10-8----8-10-12-10-8----8-10-12-15-12-15-12----------12-15-12--|
B-8~~-------------12--------------12---------------------15-13-15-----------|
G---------------------------------------------------------------------------|
D---------------------------------------------------------------------------|
A---------------------------------------------------------------------------|
E---------------------------------------------------------------------------|


e-15-12------------12-19-15-13-19-15-13----13-15-19b-12~--------------------|
B-------15---13-15----------------------15----------------8~8~8~------------|
G-------------------------------------------------------9-------9-------9-9-|
D-----------------------------------------------------------------7~7~7~----|
A---------------------------------------------------------------------------|
E---------------------------------------------------------------------------|

...i got extremely frustrated at this point in the solo, he's too damn fast!

e------10-14---------------|
B-10-8-------12-10-8-7-----|
G----------------------7---|
D------------------------7-|
A--------------------------|
E--------------------------|
Tap to rate this tab
# A B C D E F G H I J K L M N O P Q R S T U V W X Y Z