Song name
# A B C D E F G H I J K L M N O P Q R S T U V W X Y Z

Buena Vista Social Club - Hasta Siempre Comandante Che Guevara tab



Tabbed By: KC

Tuning: Standard (E,A,D,G,B,E)


e|-3--5-6p5p3h5-6p5p3h5-6p5p3h5-6p5p3h6-------------------------------|
B|3--------------------------------------10p8p6h8--10p8p6h8--10p8p6h8-|
G|--------------------------------------------------------------------|
D|--------------------------------------------------------------------|
A|--------------------------------------------------------------------|
E|--------------------------------------------------------------------|

e|---------------------------------------------------------5--3--2----|
B|--10p8p6h10------8h10p8--4--6--8-8h10p8--4-6-8--8-----4----------3--|
G|--------------------------------------------------------------------|
D|--------------------------------------------------------------------|
A|--------------------------------------------------------------------|
E|--------------------------------------------------------------------|

| /  slide up
| \  slide down
| h  hammer-on
| p  pull-off
| ~  vibrato
| +  harmonic
| x  Mute note


This is my first tab so if it's not good sorry.  Feel free to rate it as you like.  Thanks and Enjoy.
Tap to rate this tab
# A B C D E F G H I J K L M N O P Q R S T U V W X Y Z