Song name
# A B C D E F G H I J K L M N O P Q R S T U V W X Y Z

Bullet For My Valentine - No Easy Way Out tab

				-----NO EASY WAY OUT-----
				 Bullet for My Valentine

By Kalyth
UG Profile:	http://profile.ultimate-guitar.com/Kalyth/
e-mail:		ezzo81@hotmail.com


I'm studying this song and I didn't want to tune down my guitar, so I trasferred the tab 
standard tuning.
Sorry I couldn't tab the solo, so if anyone out there has it, please send it to me!!!
(Also the downtuned one is fine...)

SONG STRUCTURE:
----------------
BASS INTRO
CHORUS
INTRO
VERSE 1
VERSE 2
CHORUS
VERSE 1
VERSE 2
CHORUS
CHORUS + SOLO
BRIDGE
VERSE 2
CHORUS
CHORUS
CHORUS + OUTRO
----------------

INTRO
e|--------------------|-----------------------------|
B|--------------------|-----------------------------|
G|--------------------|-----------------------------|
D|--------------------|-----------------------------|
A|--0-0----0-0-0------|-0-0----0-0-0--------000-----|
E|--------------------|-----------------------------|
    P.M.--------------------------------------------|    Let ring


VERSE 1
e|--------------------|-----------------------|----------------------|---------------------|
B|--------------------|-----------------------|----------------------|-2-2----2-2-2---222--|
G|--7-7----7-7-7------|-5-5----5-5-5----------|-3-3----3-3-3---------|-2-2----2-2-2---222--|
D|--7-7----7-7-7------|-5-5----5-5-5----------|-3-3----3-3-3---------|-0-0----0-0-0---000--|
A|--5-5----5-5-5------|-3-3----3-3-3----------|-1-1----1-1-1---------|---------------------|
E|--------------------|-----------------------|----------------------|---------------------|
    
   Let ring


VERSE 2
e|--------------------|------------------------|----------------------|----|
B|--------------------|------------------------|----------------------|-2--|
G|--7-----------------|--5---------------------|-3--------------------|-2--|
D|--7-----------------|--5---------------------|-3--------------------|-0--|
A|--5-----------------|--3---------------------|-1--------------------|----|
E|--------------------|------------------------|---------------------------|
   Let ring             Let ring                 Let ring       Let ring


CHORUS
e|--------------------|------------------------|----------------------|------------------------|
B|--------------------|------------------------|----------------------|------------------------|
G|-5---7-7---3-3-7-5--|-555---7-7---3-3-7-5----|-5---7-7---3-3-7-5----|-555---7-7---3-3-7-5----|
D|-5---7-7---3-3-7-5--|-555---7-7---3-3-7-5----|-5---7-7---3-3-7-5----|-555---7-7---3-3-7-5----|
A|-3---5-5---1-1-5-3--|-333---5-5---1-1-5-3----|-3---5-5---1-1-5-3----|-333---5-5---1-1-5-3----|
E|--------------------|------------------------|----------------------|------------------------|

OUTRO
e|---------8---------------8-----------8------------------------10-12-13-12--|
B|---------------------------------------------------------------------------|
G|--9-10-----10-9-7---9-10-------9-10------10-9-7----9-10-5------------------|
D|---------------------------------------------------------------------------|
A|---------------------------------------------------------------------------|
E|---------------------------------------------------------------------------|
Tap to rate this tab
# A B C D E F G H I J K L M N O P Q R S T U V W X Y Z