Song name
# A B C D E F G H I J K L M N O P Q R S T U V W X Y Z

Bullet For My Valentine - All These Things I Hate Revolve Around Me tab

All These Things I Hate (Revolve Around Me)
Bullet For My Valentine
The Poison
Drop C- CGCFAD

-Intro-
Padge- Acoustic
D||--0--0-0--0--0-0-0-0-0--0-0--0--0-0-0-0-0--0-0--0--0-0-0-0-0-0-0-0-0-0-0-0--|
A||o-0--0-0--0--0-0-0-0-0--0-0--0--0-0-0-0-0--0-0--0--0-0-0-0-0-0-0-0-0-0-0-0--|
F||--8--8-8--8--8-8-8-8\6--6-6--6--6-6-6-6\4--4-4--4--4-4-4-4-3-3-3-3-4-4-4-4/-|
C||--6--6-6--6--6-6-6-6\4--4-4--4--4-4-4-4\2--2-2--2--2-2-2-2-2-2-2-2-2-2-2-2/-|
G||o---------------------------------------------------------------------------|
C||----------------------------------------------------------------------------|
-"Once more I'll say goodbyyyye to you...
-"If it's supposed to be like this, then why do most of us ignore the
D|-0--0-0--0--0-0-0-0---0--0---0---0--0--0--0--0--0-0--0--0-0-0-0-0-0-0-0-0-0-0-0--||
A|-0--0-0--0--0-0-0-0---0--0---0---0--0--0--0--0--0-0--0--0-0-0-0-0-0-0-0-0-0-0-0-o||
F|-8--8-8--8--8-8-8/11--11-11--11--11-11-11-11\4--4-4--4--4-4-4-4-3-3-3-3-4-4-4-4/-||
C|-6--6-6--6--6-6-6/9---9--9---9---9--9--9--9\\2--2-2--2--2-2-2-2-2-2-2-2-2-2-2-2/-||
G|--------------------------------------------------------------------------------o||
C|---------------------------------------------------------------------------------||
...Things happen and we don't really know whyyyy"
...chance to miss...Oh yeaaaah"

-Pre Chorus-
D|-0--0-0--0--0-0-0-0-0-0-0-0-0-0-0--0-0--0---0--0--0-0-0-0-0-0-0-|
A|-0--0-0--0--0-0-0-0-0-0-0-0-0-0-0--0-0--0---0--0--0-0-0-0-0-0-0-|
F|-6--6-6--6--6-6-6-6/8-8-8\6-6-6\4--4-4--4---4--4--4/8-8-8\6-6-6-|
C|-4--4-4--4--4-4-4-4/6-6-6\4-4-4\2--2-2--2---2--2--2/6-6-6\4-4-4-|
G|----------------------------------------------------------------|
C|----------------------------------------------------------------|
"Torn apart at the seams as my dreams turn to tears. I'm not feelin'
this situation"

D|-0--0-0--0---0--0--0-0-0-0-0-0-0-0--0-0--0---0--0--0-0~~~~-|
A|-0--0-0--0---0--0--0-0-0-0-0-0-0-0--0-0--0---0--0--0-0~~~~-|
F|-4--4-4--4---4--4--4/8-8-8\6-6-6\4--4-4--4---4--4--4-3~~~~-|
C|-2--2-2--2---2--2--2/6-6-6\4-4-4\2--2-2--2---2--2--2-2~~~~-|
G|-----------------------------------------------------------|
C|-----------------------------------------------------------|
"Runaway try to find that safe place you can hide. It's the best
place to be when you're feelin' like..."

-Chorus-
Padge- Distortion
D||-----------------------------------------------|
A||o----------------------------------------------|
F||-----------------------------------------------|
C||--6-6--6-6--9-9-9-9-9-9--4-4--4-4--8-8-8-8-8-8-|
G||o-6-6--6-6---------------4-4--4-4--------------|
C||--6-6--6-6---------------4-4--4-4--------------|
     pm-  - -               - -  - -
Matt- Distortion
D||-----------------------------------------------|
A||o----------------------------------------------|
F||------------8-8-8-8-8-8------------6-6-6-6-6-6-|
C||--6-6--6-6---------------4-4--4-4--------------|
G||o-6-6--6-6---------------4-4--4-4--------------|
C||--6-6--6-6---------------4-4--4-4--------------|
     pm-  - -               - -  - -
-"ME!!!(ME!!)         YEAAHH!!! (YEAHH!!)

Matt & Padge
D|----------------------------------------------||
A|---------------------------------------------o||
F|----------------------------------------------||
C|-2--2--2--2\1--1--1--1/2--2--2--2/4--4--4--4--||
G|-2--2--2--2\1--1--1--1/2--2--2--2/4--4--4--4-o||
C|-2--2--2--2\1--1--1--1/2--2--2--2/4--4--4--4--||
-"All these things I hate revolve around...
-"Just back off before I snap"

Padge
D|------------------------------------|
A|------------------------------------|
F|------------------------------------|
C|-6-6--8-8h9--6-6--8-8h9--6-6--8-8h9-|
G|-6-6---------6-6---------6-6--------|
C|-6-6---------6-6---------6-6--------|
   - -         - -         - -
Matt
D|------------------------------------|
A|------------------------------------|
F|------6-6h8-------6-6h8-------6-6h8-|
C|-6-6---------6-6---------6-6--------|
G|-6-6---------6-6---------6-6--------|
C|-6-6---------6-6---------6-6--------|
   - -         - -         - -

Jay
F|--------|
C|--------|
G|--------|
C|-6\\\\\-|


-Verse-
Padge- Acoustic
D||----------0--------------0--------------0----------0-----0-----|
A||o-----0-----0--------0-----0--------0-----0----------0-----0---|
F||----8---8-----8----6---6-----6----4---4-----4----3-----3-----3-|
C||--6--------------4--------------2--------------2---------------|
G||o--------------------------------------------------------------|
C||---------------------------------------------------------------|
-"Once more you tell those lies to me...
-"When you say those things in my ear...
D|---------0----------------0---------------0----------0-----0------||
A|-----0-----0---------0------0---------0-----0----------0-----0---o||
F|---8---8-----8----11---11-----11----4---4-----4----3-----3-----3--||
C|-6--------------9-----------------2--------------2----------------||
G|-----------------------------------------------------------------o||
C|------------------------------------------------------------------||
...Why can't you just be straight up with honesty (honesty)
...Why do you always tell me what you wanna hear (wanna hear) Ohh yeaah (YEAAH!!)"

-Pre Chorus-
Matt & Padge- Distortion
D|------------------------------------------------------------|
A|------------------------------------------------------------|
F|------------------------------------------------------------|
C|-pickslide--4-4-4-4-4-4-4-4-6-6-6-6-4-4-4-4-2-2-2-2-2-2-2-2-|
G|-\x\\\\\\\--------------------------------------------------|
C|-\x\\\\\\\--------------------------------------------------|
"Wear your heart on your sleeve, make this hard to believe
I'm not feelin' this situation...

Matt
D|----------------------------------------------------------------------|
A|----------------------------------------------------------------------|
F|----------------------------------------------------------------------|
C|-6-6-6-6-8-8-8-8-4-4-4-4-4-4-4-4-6-6-6-6-4-4-4-4-2-2-2-2-2-2-2-2-1br~-|
G|----------------------------------------------------------------------|
C|----------------------------------------------------------------------|
Padge
D|--------------------------------------------------------------------------|
A|--------------------------------------------------------------------------|
F|--------------------------------------------------------------------------|
C|-6-6-6-6-8-8-8-8-9-9-9-9-9-9-9-9-11-11-11-11-8-8-8-8-9-9-9-9-9-9-9-9-6br~-|
G|--------------------------------------------------------------------------|
C|--------------------------------------------------------------------------|
...Runaway, try to find, that safe place to hide
SO BEST PLACE TO BE WHEN YOU'RE FEELIN' LIKE"

-Chorus-
Padge
D||-----------------------------------------------|
A||o----------------------------------------------|
F||-----------------------------------------------|
C||--6-6--6-6--9-9-9-9-9-9--4-4--4-4--8-8-8-8-8-8-|
G||o-6-6--6-6---------------4-4--4-4--------------|
C||--6-6--6-6---------------4-4--4-4--------------|
     - -  - -               - -  - -
Matt
D||-----------------------------------------------|
A||o----------------------------------------------|
F||------------8-8-8-8-8-8------------6-6-6-6-6-6-|
C||--6-6--6-6---------------4-4--4-4--------------|
G||o-6-6--6-6---------------4-4--4-4--------------|
C||--6-6--6-6---------------4-4--4-4--------------|
     - -  - -               - -  - -
-"ME!!!(ME!!)         YEAAHH!!! (YEAHH!!)

Matt & Padge
D|----------------------------------------------||
A|---------------------------------------------o||
F|----------------------------------------------||
C|-2--2--2--2\1--1--1--1/2--2--2--2/4--4--4--4--||
G|-2--2--2--2\1--1--1--1/2--2--2--2/4--4--4--4-o||
C|-2--2--2--2\1--1--1--1/2--2--2--2/4--4--4--4--||x4
-"All these things I hate revolve around...
-"Just back off before I snap and you'll see!
-"All these things I hate revolve around...
-"Just back off before I snap”

-Breakdown-
Padge
D||--------------------------------------------------------||
A||o------------------------------------------------------o||
F||--------------------------------------------------------||
C||--6-6--8-8h9--6-6--8-8h9--6-6--8-8h9--6-6--8-8h9--2--4--||
G||o-6-6---------6-6---------6-6---------6-6---------2--4-o||
C||--6-6---------6-6---------6-6---------6-6---------2--4--||
     - -         - -         - -         - -
Matt
D||--------------------------------------------------------||
A||o------------------------------------------------------o||
F||-------6-6h8-------6-6h8-------6-6h8-------6-6h8--------||
C||--6-6---------6-6---------6-6---------6-6---------2--4--||
G||o-6-6---------6-6---------6-6---------6-6---------2--4-o||
C||--6-6---------6-6---------6-6---------6-6---------2--4--||
     - -         - -         - -         - -

Padge
D||--------------------------------------------------------||
A||o------------------------------------------------------o||
F||--------------------------------------------------------||
C||--6-6--8-8h9--6-6--8-8h9--6-6-6-6-6-6-8-8h9--6-6--2--4--||
G||o-6-6---------6-6---------6-6-6-6-6-6--------6-6--2--4-o||
C||--6-6---------6-6---------6-6-6-6-6-6--------6-6--2--4--||
     - -         - -         - - - - - -        - -
Matt
D||--------------------------------------------------------||
A||o------------------------------------------------------o||
F||-------6-6h8-------6-6h8--------------6-6h8-------------||
C||--6-6---------6-6---------6-6-6-6-6-6--------6-6--2--4--||
G||o-6-6---------6-6---------6-6-6-6-6-6--------6-6--2--4-o||
C||--6-6---------6-6---------6-6-6-6-6-6--------6-6--2--4--||
     - -         - -         - - - - - -        - -

Matt & Padge
D|------------------------|
A|------------------------|
F|------------------------|
C|------------------------|
G|------------------------|
C|-6b--6b--6b--6b--6b--6b-|

D||------------------------------------------------------------------------||
A||o----------------------------------------------------------------------o||
F||------------4--3------------------------------4--6--3-------------------||
C||--2-2--2-2-------4--4-4-4-4-6-6-6-6--2-2--2-2----------4-4-4-4-6-6-6-6--||
G||o-2-2--2-2----------4-4-4-4-6-6-6-6--2-2--2-2----------4-4-4-4-6-6-6-6-o||
C||--2-2--2-2----------4-4-4-4-6-6-6-6--2-2--2-2----------4-4-4-4-6-6-6-6--||
     - -  - -                           - -  - -
"Torn apart at the seams as my dreams turn to tears, I'm not feelin' this situation.
Runaway, try to find that safe place you can hide...
It's the best place to be when you're feelin' like meee"

Matt
D|---------------------------------------------------------|
A|-----12-----12-----12-----12-----12----------------------|
F|---11-----11-----11-----11-----11------------------------|
C|-9------9------9------9------9-------1-1-1-1-1-1-1-1-1-1-|
G|-------------------------------------1-1-1-1-1-1-1-1-1-1-|
C|-------------------------------------1-1-1-1-1-1-1-1-1-1-|
Padge                                  - - - - - - - - - -
D|---------0~~~--------------------------------------------|
A|---------0~~~--------------------------------------------|
F|---------------------------------------------------------|
C|-2--2--2-----2--2--2--2--2--2--2--2--1-1-1-1-1-1-1-1-1-1-|
G|-2--2--2-----2--2--2--2--2--2--2--2--1-1-1-1-1-1-1-1-1-1-|
C|-2--2--2-----2--2--2--2--2--2--2--2--1-1-1-1-1-1-1-1-1-1-|
                                       - - - - - - - - - -
                             (IT'S THE BEST PLACE TO BE WHEN YOU'RE!!)
Matt & Padge
D|-----------------------------------------------------------------------|
A|-----------------------------------------------------------------------|
F|-----------------------------------------------------------------------|
C|-6-6-6-6-6-6--6------4-4-4-4-4-4--4----2-2-2-2\1-1-1-1/2-2-2-2/4-4-4-4-|
G|-6-6-6-6-6-6--6------4-4-4-4-4-4--4----2-2-2-2\1-1-1-1/2-2-2-2/4-4-4-4-|
C|-6-6-6-6-6-6--6------4-4-4-4-4-4--4----2-2-2-2\1-1-1-1/2-2-2-2/4-4-4-4-|
"ME!!! (ME!!!)      YEAH!!! (YEAH!!!)  All these things I hate revolve around

Padge
D|----------------------------------------------|
A|----------------------------------------------|
F|----------------------------------------------|
C|-6-6--6-6--9-9-9-9-9-9--4-4--4-4--8-8-8-8-8-8-|
G|-6-6--6-6---------------4-4--4-4--------------|
C|-6-6--6-6---------------4-4--4-4--------------|
   - -  - -               - -  - -
Matt
D|----------------------------------------------|
A|----------------------------------------------|
F|-----------8-8-8-8-8-8------------6-6-6-6-6-6-|
C|-6-6--6-6---------------4-4--4-4--------------|
G|-6-6--6-6---------------4-4--4-4--------------|
C|-6-6--6-6---------------4-4--4-4--------------|
   - -  - -               - -  - -
-ME!!! (MEE!!!)         YEAH!!!! (YEAH!!!)

Matt & Padge
D|---------------------------------------------|
A|---------------------------------------------|
F|---------------------------------------------|
C|-2--2--2--2\1--1--1--1/2--2--2--2/4--4--4--4-|
G|-2--2--2--2\1--1--1--1/2--2--2--2/4--4--4--4-|
C|-2--2--2--2\1--1--1--1/2--2--2--2/4--4--4--4-|
"Just back off before I snap and you'll
D|-------------------------------------------|
A|-------------------------------------------|
F|-------------------------------6-6-6-6-6-6-|
C|-6-6-6-6-6-6---------4-4--4-4--8-8-8-8-8-8-|
G|-6-6-6-6-6-6---------4-4--4-4--------------|
C|-6-6-6-6-6-6---4b----4-4--4-4--------------|
   - - - - - -         - -  - -
SEE!!!!           ME!!!! (ME!!!!)
D|---------------------------------------------|
A|---------------------------------------------|
F|---------------------------------------------|
C|-2--2--2--2\1--1--1--1/2--2--2--2/4--4--4--4-|
G|-2--2--2--2\1--1--1--1/2--2--2--2/4--4--4--4-|
C|-2--2--2--2\1--1--1--1/2--2--2--2/4--4--4--4-|
"All these things I hate revolve around...

Padge
D|----------------------------------------------|
A|----------------------------------------------|
F|----------------------------------------------|
C|-6-6--6-6--9-9-9-9-9-9--4-4--4-4--8-8-8-8-8-8-|
G|-6-6--6-6---------------4-4--4-4--------------|
C|-6-6--6-6---------------4-4--4-4--------------|
   - -  - -               - -  - -
Matt
D|----------------------------------------------|
A|----------------------------------------------|
F|-----------8-8-8-8-8-8------------6-6-6-6-6-6-|
C|-6-6--6-6---------------4-4--4-4--------------|
G|-6-6--6-6---------------4-4--4-4--------------|
C|-6-6--6-6---------------4-4--4-4--------------|
   - -  - -               - -  - -
-ME!!!! (ME!!!)        YEAH!!! (YEAH!!!)

Matt & Padge
D|---------------------------------------------|
A|---------------------------------------------|
F|---------------------------------------------|
C|-2--2--2--2\1--1--1--1/2--2--2--2/4--4--4--4-|
G|-2--2--2--2\1--1--1--1/2--2--2--2/4--4--4--4-|
C|-2--2--2--2\1--1--1--1/2--2--2--2/4--4--4--4-|
"Just back off before I snap..."

Padge
D|----------------------------------------------------------|
A|----------------------------------------------------------|
F|----------------------------------------------------------|
C|-6-6--8-8h9--6-6--8-8h9--6-6--8-8h9--6-6--8-8h9--9--8--6\-|
G|-6-6---------6-6---------6-6---------6-6------------------|
C|-6-6---------6-6---------6-6---------6-6------------------|
   - -         - -         - -         - -
Matt
D|----------------------------------------------------------|
A|----------------------------------------------------------|
F|------6-6h8-------6-6h8-------6-6h8-------6-6h8--8--6--4\-|
C|-6-6---------6-6---------6-6---------6-6------------------|
G|-6-6---------6-6---------6-6---------6-6------------------|
C|-6-6---------6-6---------6-6---------6-6------------------|
   - -         - -         - -         - -
Tap to rate this tab
# A B C D E F G H I J K L M N O P Q R S T U V W X Y Z