Song name
# A B C D E F G H I J K L M N O P Q R S T U V W X Y Z

Bullet For My Valentine - My Fist Your Mouth Her Scars tab

This is my first tab and im pretty sure its correct. rate please!!!

Band:Bullet For My Valentine
Song:My Fist Your Mouth Her Scars
Album:The Poison
Tuning:CGCFAD

Intro (Guitar One)
D|---------------------------------------------------------------------------|
A|---------------------------------------------------------------------------|
F|-------------------------5-3-2---2----------------------------5-3-2---2-5*-|
C|---3-3-----2-2-----3-3---------5---3----3-3-----2-2-----3-3---------5------|
G|---------------------------------------------------------------------------|
C|-00-0-00000-0-00000-0-000-------------00-0-00000-0-00000-0-000-------------|
   .. . ..... . ..... . ...             .. . ..... . ..... . ...

D|---------------------------------------------------------------------------|
A|---------------------------------------------------------------------------|
F|-------------------------5-3-2---2----------------------------5-3-2---2----|
C|---3-3-----2-2-----3-3---------5---3----3-3-----2-2-----3-3---------5---3--|
G|---------------------------------------------------------------------------|
C|-00-0-00000-0-00000-0-000-------------00-0-00000-0-00000-0-000-------------|
   .. . ..... . ..... . ...             .. . ..... . ..... . .... . . . . 

(Guitar Two)
D|------------------|
A|------------------|
F|------------------|
C|------------------|
G|-00---0000---0000-|
C|-00---0000---0000-|

D|---------------------------------------------------------------------------|
A|---------------------------------------------------------------------------|
F|-------------------------5-3-2---2----------------------------5-3-2---2-5*-|
C|---3-3-----2-2-----3-3---------5---3----3-3-----2-2-----3-3---------5------|
G|---------------------------------------------------------------------------|
C|-00-0-00000-0-00000-0-000-------------00-0-00000-0-00000-0-000-------------|
   .. . ..... . ..... . ...             .. . ..... . ..... . ...

D|---------------------------------------------------------------------------|
A|---------------------------------------------------------------------------|
F|-------------------------5-3-2---2----------------------------5-3-2---2----|
C|---3-3-----2-2-----3-3---------5---3----3-3-----2-2-----3-3---------5---3--|
G|---------------------------------------------------------------------------|
C|-00-0-00000-0-00000-0-000-------------00-0-00000-0-00000-0-000-------------|
   .. . ..... . ..... . ...             .. . ..... . ..... . .... . . . . 

Verse
D|-------------------------------------------------------------------------|
A|-------------------------------------------------------------------------|
F|-------------------------------------------------------------------------|
C|-0--------10-8-7-10-7--------10-8-7-1-0--------10-8-7-10-7-7-8-8-5-5-3-8-|
G|-0-000000-10-8-7-8--5-000000-10-8-7-1-0-000000-10-8-7-8--5-5-6-6-3-3-1-6-|
C|-0-000000-10-8-7------000000-10-8-7-1-0-000000-10-8-7--------------------|
     ......             ......            ......           

D|-------------------------------------------------------------------------|
A|-------------------------------------------------------------------------|
F|-------------------------------------------------------------------------|
C|-0--------10-8-7-10-7--------10-8-7-1-0--------10-8-7-10-7-7-8-8-5-5-3-8-|
G|-0-000000-10-8-7-8--5-000000-10-8-7-1-0-000000-10-8-7-8--5-5-6-6-3-3-1-6-|
C|-0-000000-10-8-7------000000-10-8-7-1-0-000000-10-8-7--------------------|
     ......             ......            ......

Pre-Chorus
D|------------------------------------------------------------|
A|------------------------------------------------------------|
F|------------------------------------------------------------|
C|------------------------------------------------------------|
G|---12tp10tp12tp13tp12tp10tp12---12tp10tp12tp---12tp10tp12tp-|
C|-0----------------------------8--------------7--------------|

D|------------------------------------------------------------|
A|------------------------------------------------------------|
F|------------------------------------------------------------|
C|------------------------------------------------------------|
G|---12tp10tp12tp13tp12tp10tp12---12tp10tp12tp---12tp10tp12tp-|
C|-0----------------------------8--------------7--------------|


Chorus
D|---------------------------------------------------------------------------|
A|---------------------------------------------------------------------------|
F|-------------------------5-3-2---2----------------------------5-3-2---2-5*-|
C|---3-3-----2-2-----3-3---------5---3----3-3-----2-2-----3-3---------5------|
G|---------------------------------------------------------------------------|
C|-00-0-00000-0-00000-0-000-------------00-0-00000-0-00000-0-000-------------|
   .. . ..... . ..... . ...             .. . ..... . ..... . ...

D|---------------------------------------------------------------------------|
A|---------------------------------------------------------------------------|
F|-------------------------5-3-2---2----------------------------5-3-2---2----|
C|---3-3-----2-2-----3-3---------5---3----3-3-----2-2-----3-3---------5---3--|
G|---------------------------------------------------------------------------|
C|-00-0-00000-0-00000-0-000-------------00-0-00000-0-00000-0-000-------------|
   .. . ..... . ..... . ...             .. . ..... . ..... . .... . . . . 

Verse
D|-------------------------------------------------------------------------|
A|-------------------------------------------------------------------------|
F|-------------------------------------------------------------------------|
C|-0--------10-8-7-10-7--------10-8-7-1-0--------10-8-7-10-7-7-8-8-5-5-3-8-|
G|-0-000000-10-8-7-8--5-000000-10-8-7-1-0-000000-10-8-7-8--5-5-6-6-3-3-1-6-|
C|-0-000000-10-8-7------000000-10-8-7-1-0-000000-10-8-7--------------------|
     ......             ......            ......           

D|-------------------------------------------------------------------------|
A|-------------------------------------------------------------------------|
F|-------------------------------------------------------------------------|
C|-0--------10-8-7-10-7--------10-8-7-1-0--------10-8-7-10-7-7-8-8-5-5-3-8-|
G|-0-000000-10-8-7-8--5-000000-10-8-7-1-0-000000-10-8-7-8--5-5-6-6-3-3-1-6-|
C|-0-000000-10-8-7------000000-10-8-7-1-0-000000-10-8-7--------------------|
     ......             ......            ......

Pre-Chorus
D|------------------------------------------------------------|
A|------------------------------------------------------------|
F|------------------------------------------------------------|
C|------------------------------------------------------------|
G|---12tp10tp12tp13tp12tp10tp12---12tp10tp12tp---12tp10tp12tp-|
C|-0----------------------------8--------------7--------------|

D|------------------------------------------------------------|
A|------------------------------------------------------------|
F|------------------------------------------------------------|
C|------------------------------------------------------------|
G|---12tp10tp12tp13tp12tp10tp12---12tp10tp12tp---12tp10tp12tp-|
C|-0----------------------------8--------------7--------------|

Chorus
D|---------------------------------------------------------------------------|
A|---------------------------------------------------------------------------|
F|-------------------------5-3-2---2----------------------------5-3-2---2-5*-|
C|---3-3-----2-2-----3-3---------5---3----3-3-----2-2-----3-3---------5------|
G|---------------------------------------------------------------------------|
C|-00-0-00000-0-00000-0-000-------------00-0-00000-0-00000-0-000-------------|
   .. . ..... . ..... . ...             .. . ..... . ..... . ...

D|---------------------------------------------------------------------------|
A|---------------------------------------------------------------------------|
F|-------------------------5-3-2---2----------------------------5-3-2---2----|
C|---3-3-----2-2-----3-3---------5---3----3-3-----2-2-----3-3---------5---3--|
G|---------------------------------------------------------------------------|
C|-00-0-00000-0-00000-0-000-------------00-0-00000-0-00000-0-000-------------|
   .. . ..... . ..... . ...             .. . ..... . ..... . .... . . . . 

Solo
D|------------10------------10---------------10------------13-10/12~-------|
A|-----13------------13---------------13------------13---------------------|
F|-9/10---9/10---9/10---9/10------9/10---9/10---9/10---9/10----------12\\\-|
C|-------------------------------------------------------------------12\\\-|
G|-------------------------------------------------------------------------|
C|-------------------------------------------------------------------------|

D|---------------------------------------10-----12-----15---------------10-|
A|--------------------------------13-----------------------------13--------|
F|-14-12----------------------9/10---9/10---9/10---9/10------9/10---9/10---|
C|-------15-14-15-10-10/12~------------------------------------------------|
G|-------------------------------------------------------------------------|
C|-------------------------------------------------------------------------|
   .  .  .  .  .  .  

D|------------15-10/12~--------------------------------|
A|-----13----------------------------------------------|
F|-9/10---9/10----------12\\\-14-12--------------------|
C|----------------------12\\\-------15-14-15-10-10/12~-|
G|-----------------------------------------------------|
C|-----------------------------------------------------|
                              .  .  .  .  .  .

Bridge
D|------------------------------------------------------------|
A|------------------------------------------------------------|
F|------------------------------------------------------------|
C|------------------------------------------------------------|
G|---12tp10tp12tp13tp12tp10tp12---12tp10tp12tp---12tp10tp12tp-|
C|-0----------------------------8--------------7--------------|

D|-----------------------------------|
A|-----------------------------------|
F|-----------------------------------|
C|------------------------------8--7-|
G|---12tp10tp12tp13tp12tp10tp12-8--7-|
C|-0----------------------------8--7-|

Verse
D|-------------------------------------------------------------------------|
A|-------------------------------------------------------------------------|
F|-------------------------------------------------------------------------|
C|-0--------10-8-7-10-7--------10-8-7-1-0--------10-8-7-10-7-7-8-8-5-5-3-8-|
G|-0-000000-10-8-7-8--5-000000-10-8-7-1-0-000000-10-8-7-8--5-5-6-6-3-3-1-6-|
C|-0-000000-10-8-7------000000-10-8-7-1-0-000000-10-8-7--------------------|
     ......             ......            ......           

D|-------------------------------------------------------------------------|
A|-------------------------------------------------------------------------|
F|-------------------------------------------------------------------------|
C|-0--------10-8-7-10-7--------10-8-7-1-0--------10-8-7-10-7-7-8-8-5-5-3-8-|
G|-0-000000-10-8-7-8--5-000000-10-8-7-1-0-000000-10-8-7-8--5-5-6-6-3-3-1-6-|
C|-0-000000-10-8-7------000000-10-8-7-1-0-000000-10-8-7--------------------|
     ......             ......            ......

Bridge (Guitar One)
D|------------------------------------------------------------|
A|------------------------------------------------------------|
F|------------------------------------------------------------|
C|------------------------------------------------------------|
G|---12tp10tp12tp13tp12tp10tp12---12tp10tp12tp---12tp10tp12tp-|
C|-0----------------------------8--------------7--------------|

D|-----------------------------------|
A|-----------------------------------|
F|-----------------------------------|
C|------------------------------8--7-|
G|---12tp10tp12tp13tp12tp10tp12-8--7-|
C|-0----------------------------8--7-|

(Guitar Two)
D|-------------------------------------------------------------|
A|-------------------------------------------------------------|
F|-------------------------------------------------------------|
C|-0------------------8----------7------0~----------------8--7-|
G|-0------------------8----------7------0~----------------8--7-|
C|-0------------------8----------7------0~----------------8--7-|

Pre-Chorus
D|------------------------------------------------------------|
A|------------------------------------------------------------|
F|------------------------------------------------------------|
C|------------------------------------------------------------|
G|---12tp10tp12tp13tp12tp10tp12---12tp10tp12tp---12tp10tp12tp-|
C|-0----------------------------8--------------7--------------|

D|------------------------------------------------------------|
A|------------------------------------------------------------|
F|------------------------------------------------------------|
C|------------------------------------------------------------|
G|---12tp10tp12tp13tp12tp10tp12---12tp10tp12tp---12tp10tp12tp-|
C|-0----------------------------8--------------7--------------|

Chorus/Outro
D|---------------------------------------------------------------------------|
A|---------------------------------------------------------------------------|
F|-------------------------5-3-2---2----------------------------5-3-2---2-5*-|
C|---3-3-----2-2-----3-3---------5---3----3-3-----2-2-----3-3---------5------|
G|---------------------------------------------------------------------------|
C|-00-0-00000-0-00000-0-000-------------00-0-00000-0-00000-0-000-------------|
   .. . ..... . ..... . ...             .. . ..... . ..... . ...

D|---------------------------------------------------------------------------|
A|---------------------------------------------------------------------------|
F|-------------------------5-3-2---2----------------------------5-3-2---2----|
C|---3-3-----2-2-----3-3---------5---3----3-3-----2-2-----3-3---------5---0--|
G|------------------------------------------------------------------------0--|
C|-00-0-00000-0-00000-0-000-------------00-0-00000-0-00000-0-000----------0--|
   .. . ..... . ..... . ...             .. . ..... . ..... . .... . . . .

Legend
.=palm mute
/=slide up
\=slide down
*=harmonic
tp=tremelo pick 


Tap to rate this tab
 
# A B C D E F G H I J K L M N O P Q R S T U V W X Y Z