Song name
# A B C D E F G H I J K L M N O P Q R S T U V W X Y Z

Bury Your Dead - House Of Straw tab

Murray4920

House of Straw
Beauty and the Breakdown
Bury Your Dead

This song is ballin'.

They tune to drop A#

|----------------------------------------------------|
|----------------------------------------------------|
|----------------------------------------------------|
|----------------------------------------------------|
|-0--0-0--0-0--0-0-0-0000/-0--0-0--0-0--0-0-0-0-0-(3)|
|-0--0-0--0-0--0-0-0-0000/-0--0-0--0-0--0-0-0-0-0-(3)|
     3 Times               1 time

|------------------------------------------|
|------------------------------------------|
|------------------------------------------|
|------------------------------------------|
|------------------------------------------|
|-12-0-12-0-13-12-0-12-0-13-12-0-12-0-15-0-|

|-------------------------------|
|-------------------------------|
|-------------------------------|
|-00-3-0-43-0-3-0-43-0-0-0-0-0-0|
|-00-3-0-43-0-3-0-43-0-0-0-0-0-0|
|-00-3-0-43-0-3-0-43-0-0-0-0-0-0|(Minor changes along the way, easy to figure out)

|--------|
|--------|
|--------|
|--------|
|--------|
|-4-3-6-3|(Little fill after the riff above going into the octave part)

2:38
|---------------------------------|
|---------------------------------|
|---------------------------------|
|-44444444444444444444444444444444|
|-44444444444444444444444444444444|
|-44444444444444444444444444444444|


Before end breakdown.
|---------------------------------------------------------------|
|---------------------------------------------------------------|
|---------------------------------------------------------------|
|---------------------------------------------------------------|
|---------------------------------------------------------------|
|-12-15-13-15-17-18-17-12-15-13-15-17-18-17-15-17-18-20-17-22-20|
There's the notes, listen to the song for how many times you play each.
Tap to rate this tab
 
# A B C D E F G H I J K L M N O P Q R S T U V W X Y Z