Song name
# A B C D E F G H I J K L M N O P Q R S T U V W X Y Z

Cartel - Write This Down tab

cartel - write this down
 tuning - half step down Eb-Ab-Db-Gb-Bb-eb

  b = bend
  h = hammer on
  p = pull off
  / = slide

Look at the times above each section for best results.
This is my first tab, hope you enjoy :)


Intro
0:00
----000000-----000000---|
----554455-----779977---|
------------------------|
---------------Harmony--|
------------------------|
------------------------|

Verse Rhythm
"Write this down..." 0:05  and 0:50                     0:28 and 1:12
-------------------------------------------------------|----------|
-------------------------------------------------------|----------|
---------------------------66--44--22222---------------|------4---|
-44--4----6-7777----222----66--44--22222----6-77-6--2--|---2--4---|
-44--4----6-7777----222----44--22--00000----6-77-6--2--|---2--2---|
-22002----4-5555----000---------------------4-55-4--0--|---0------|

Verse Lead
0:05                                              0:28 and 1:12    1:17
-000000-----7---5---4-------4---------00000--77770-|-7---7---|--------------|
-554455--55---5---5---5-7p5---5--4h5--55554--55555-|---5---5-|-------5--7b--|
----^----------------------------------------------|---------|-4--6---------|
--Play---------------------------------------------|---------|--------------|
-Multiple------------------------------------------|---------|--------------|
--Times.-------------------------------------------|---------|--------------|

Rhythm
"boy you know i'm sick and tired..."
0:33 and 1:18
-----------------------------------------------------|
-----------------------------------------------------|
-6--------4------------------------------------------|
-6--7--2--4------------------------------------------|
-4--7--2--2------------------------------------------|
----5--0---------------------------------------------|

*This is played during the rhythm above*
Lead 0:33          Lead 1:24         Lead 2:12
-----------------|-----------------|-----------------|
-5p4---4h5p4-----|-9p7---7h9p7-----|-5p4-----7h9p7---|
-----4-------4---|-----9-------9---|-----4---------9-|
-----------------|-----------------|-----------------|
-----------------|-----------------|-----------------|
-----------------|-----------------|-----------------|

0:44
----Guitar 1---------Guitar 2------------------------|
-----------------------------------------------------|
---99-88-99-88-------666-----------------------------|
---99-99-99-99-------666-77--------------------------|
---77-77-77-77-------444-77--------------------------|
-------------------------55--------------------------|

Lead 1:29 and 2:17
-----------------------------------------------------|
-----------------------------------------------------|
---9-/-11-/-13------------8--------------------------|
---x-/-x--/-x-------------x--------------------------|
---7-/-9-/--11------------6--------------------------|
-----------------------------------------------------|

Bridge 1:40
--------------------------------------------|------------------|
--------------------------------------------|------------------|
------999-----------------------------------|------------------|
-777--999--------9--------777--999--444--6--|--44--4--44--4----|
-777--777---9h11---11p9---777--999--444--6--|--44--4--44--4----|
-555----------------------555--777--222--4--|--22002--22002----|
Tap to rate this tab
 
# A B C D E F G H I J K L M N O P Q R S T U V W X Y Z