Guitaretab - guitar tabs
Song name
# A B C D E F G H I J K L M N O P Q R S T U V W X Y Z
Home / C / Cartel / Best tab

Cartel - Best tab

Hey folks, great band, interesting song. I noticed that none of the other tabs
on the site were fully correct and failed to take into account that Cartel has
three non-rhythm section instrumentalists, or, in the case of this song, 2 guitars and a 
keyboard.

With that in mind I tabbed this out.

All guitars and keyboard arranged for guitar are in Eb standard tuning: Eb G# C# F# B# eb

The two guitar also have a capo on the 2nd fret, but the keyboard doesnt.  But then
again, why would it?

Taken from my Powertab of the same song.
Eat and enjoy




#----------------------------------PLEASE NOTE---------------------------------#
#This file is the author's own work and represents their interpretation of the #
#song. You may only use this file for private study, scholarship, or research. #
#------------------------------------------------------------------------------##

                                    THE BEST
                              As recorded by Cartel
                           (From the 2007 Album CARE)

Words by Will Pugh

Music by Catel
Arranged by Felkara
Transcribed by Felkara

Gtr I (D# G# C# F# A# D#) - 'Gtr 1'
Gtr II (D# G# C# F# A# D#) - 'Keyboard 1'
Gtr III (D# G# C# F# A# D#) - 'Gtr 2'

 Intro
  Q=79
 4/4
  Gtr I
  E S E S e E S E S e   E S E S e E S E S e
|-----7---------7-----|-----7---------7-----|
|---8---8-----8---8---|---8---8-----8---8---|
|-9-------9-8-------8-|-7-------7-6-------6-|
|---------------------|---------------------|
|---------------------|---------------------|
|---------------------|---------------------|


  E S E S e E S E S e   E S E S e E E E E
|-----7---------7-----|-----7-------7------|
|---8---8-----8---8---|---8---8---------8--|
|-5-------5-5-------5-|-5-------5-8---7----|
|---------------------|--------------------|
|---------------------|--------------------|
|---------------------|--------------------|


 Enter Vocals
  E S E S e E S E S e   E S E S e E S E S e
|-----7---------7-----|-----7---------7-----|
|---8---8-----8---8---|---8---8-----8---8---|
|-9-------9-8-------8-|-7-------7-6-------6-|
|---------------------|---------------------|
|---------------------|---------------------|
|---------------------|---------------------|


   E S E S  e E S E S e   E S E S e E S E S e
|------7----------7-----|-----7---------7------|
|----8---8------8---8---|---8---8-----8---8----|
|-----------------------|----------------------|
|-10-------10-9-------9-|-7-------7-7-------9--|
|-----------------------|----------------------|
|-----------------------|----------------------|


   E S E S  e E S E S e   E S E S e E E E  E
|------7----------7-----|-----7--------------|
|----8---8------8---8---|---8---8------------|
|-----------------------|--------------------|
|-10-------10-9-------9-|-7-------7-7-9-7----|
|-----------------------|-----------------10-|
|-----------------------|--------------------|


  Gtr II
   H          H            H          H
|-14---------13---------|-12---------11---------|
|-----------------------|-----------------------|
|-----------------------|-----------------------|
|-----------------------|-----------------------|
|-----------------------|-----------------------|
|-----------------------|-----------------------|
|
| Gtr I
|  E S E S e  E S E S e    E S E S e  E S E S e
|------7----------7-----|------7----------7-----|
|----8---8------8---8---|----8---8------8---8---|
|--9-------9--8-------8-|--7-------7--6-------6-|
|-----------------------|-----------------------|
|-----------------------|-----------------------|
|-----------------------|-----------------------|


   H          Q.       E    H          Q    Q
|-10---------------------|------------14---13-----|
|------------10----------|------------------------|
|----------------------9-|-11---------------------|
|------------------------|------------------------|
|------------------------|------------------------|
|------------------------|------------------------|
|
|  E S E S e  E  S E S e    E S E S e  E E  E E
|------7-----------7-----|------7--------7--------|
|----8---8-------8---8---|----8---8-----------8---|
|--5-------5--5--------5-|--5-------5--8----7-----|
|------------------------|------------------------|
|------------------------|------------------------|
|------------------------|------------------------|


   Enter 2nd Guitar
     H          H            H          H
||--14---------13---------|-12---------11---------|
||o-----------------------|-----------------------|
||------------------------|-----------------------|
||------------------------|-----------------------|
||o-----------------------|-----------------------|
||------------------------|-----------------------|
|
|    E S E S e  E S E S e    E S E S e  E S E S e
||-------7----------7-----|------7----------7-----|
||o----8---8------8---8---|----8---8------8---8---|
||---9-------9--8-------8-|--7-------7--6-------6-|
||------------------------|-----------------------|
||o-----------------------|-----------------------|
||------------------------|-----------------------|
|
|   Gtr III
|    E S E S e  E S E S e    E S E S e  E S E S e
||------------------------|-----------------------|
||o------0----------0-----|------0----------0-----|
||-----0---0------0---0---|----0---0------0---0---|
||------------------------|-----------------------|
||o--7-------7--6-------6-|--5-------5--4-------4-|
||------------------------|-----------------------|


   H          H           H.               E   E
|-10----------9---------|-7----------------7---9---|
|-----------------------|--------------------------|
|-----------------------|--------------------------|
|-----------------------|--------------------------|
|-----------------------|--------------------------|
|-----------------------|--------------------------|
|
|  E S E S  e E S E S e   E  S E S e E S E   S e
|------7----------7-----|------7---------7---------|
|----8---8------8---8---|----8---8-----8-----8-----|
|-----------------------|--------------------------|
|-10-------10-9-------9-|-7--------7-7---------9---|
|-----------------------|--------------------------|
|-----------------------|--------------------------|
|
|  E S E S  e E S E S e   E  S E S e E S E   S e
|-----------------------|--------------------------|
|------0----------0-----|------0---------0---------|
|----0---0------0---0---|----0---0-----0-----0-----|
|-----------------------|--------------------------|
|--3--------3-2-------2-|-0--------0-0---------2---|
|-----------------------|--------------------------|

[ Tab from: http://www.guitaretab.com/c/cartel/159771.html ]
   H          H           H.               E   E
|-10----------9---------|-7----------------7---9-|
|-----------------------|------------------------|
|-----------------------|------------------------|
|-----------------------|------------------------|
|-----------------------|------------------------|
|-----------------------|------------------------|
|
|  E S E S  e E S E S e   E  S E S e E S E   S e
|------7----------7-----|------7---------7-------|
|----8---8------8---8---|----8---8-----8-----8---|
|-----------------------|------------------------|
|-10-------10-9-------9-|-7--------7-7---------9-|
|-----------------------|------------------------|
|-----------------------|------------------------|
|
|  E S E S  e E S E S e   E  S E S e E S E   S e
|-----------------------|------------------------|
|------0----------0-----|------0---------0-------|
|----0---0------0---0---|----0---0-----0-----0---|
|-----------------------|------------------------|
|--3--------3-2-------2-|-0--------0-0---------2-|
|-----------------------|------------------------|


 1.
   H          H           H         E   E E  E
|-10----------9---------|-7---------7---9-7-----||
|-----------------------|-------------------10-o||
|-----------------------|-----------------------||
|-----------------------|-----------------------||
|-----------------------|----------------------o||
|-----------------------|-----------------------||
|
|  E S E S  e E S E S e   E S E S e E   E E  E
|------7----------7-----|-----7-----------------||
|----8---8------8---8---|---8---8--------------o||
|-----------------------|-----------------------||
|-10-------10-9-------9-|-7-------7-7---9-7-----||
|-----------------------|-------------------10-o||
|-----------------------|-----------------------||
|
|                                            ~~
|  E S E S  e E S E S e   E S E S e E a E E  E
|-----------------------|-----------------------||
|------0----------0-----|-----0----------------o||
|----0---0------0---0---|---0---0---------------||
|-----------------------|-----------------------||
|--3--------3-2-------2-|-0-------0-0-0-2-0----o||
|-----------------------|--------------------3--||


  2.
   H          H           H.               E   E
|-10----------9---------|-7----------------7---9-|
|-----------------------|------------------------|
|-----------------------|------------------------|
|-----------------------|------------------------|
|-----------------------|------------------------|
|-----------------------|------------------------|
|
|  E S E S  e E S E S e   E  S E S e E S E   S e
|------7----------7-----|------7---------7-------|
|----8---8------8---8---|----8---8-----8-----8---|
|-----------------------|------------------------|
|-10-------10-9-------9-|-7--------7-7---------9-|
|-----------------------|------------------------|
|-----------------------|------------------------|
|
|  E S E S  e E S E S e   E  S E S e E S E   S e
|-----------------------|------------------------|
|------0----------0-----|------0---------0-------|
|----0---0------0---0---|----0---0-----0-----0---|
|-----------------------|------------------------|
|--3--------3-2-------2-|-0--------0-0---------2-|
|-----------------------|------------------------|


   H          H           H         E   E E  E
|-10----------9---------|-7---------7---9-7----|
|-----------------------|-------------------10-|
|-----------------------|----------------------|
|-----------------------|----------------------|
|-----------------------|----------------------|
|-----------------------|----------------------|
|
|  E S E S  e E S E S e   E S E S e E   E E  e
|------7----------7-----|-----7----------------|
|----8---8------8---8---|---8---8--------------|
|-----------------------|----------------------|
|-10-------10-9-------9-|-7-------7-7---9-7----|
|-----------------------|-------------------10-|
|-----------------------|----------------------|
|
|  E S E S  e E S E S e   E S E S e E a E E  e
|-----------------------|----------------------|
|------0----------0-----|-----0----------------|
|----0---0------0---0---|---0---0--------------|
|-----------------------|----------------------|
|--3--------3-2-------2-|-0-------0-0-0-2-0----|
|-----------------------|--------------------3-|


   W           +W            +W            +W
|-----------|-------------|-------------|---------*|
|-10--------|-(10)--------|-(10)--------|-(10)----*|
|-----------|-------------|-------------|---------*|
|-----------|-------------|-------------|---------*|
|-----------|-------------|-------------|---------*|
|-----------|-------------|-------------|---------*|
|
|  W           +W            +W            +W
|-----------|-------------|-------------|---------*|
|-----------|-------------|-------------|---------*|
|--0--------|--(0)--------|--(0)--------|--(0)----*|
|--9--------|--(9)--------|--(9)--------|--(9)----*|
|-10--------|-(10)--------|-(10)--------|-(10)----*|
|-----------|-------------|-------------|---------*|
|
|  W           +W            +W            +W
|-----------|-------------|-------------|---------*|
|-----------|-------------|-------------|---------*|
|--4--------|--(4)--------|--(4)--------|--(4)----*|
|--5--------|--(5)--------|--(5)--------|--(5)----*|
|--5--------|--(5)--------|--(5)--------|--(5)----*|
|--3--------|--(3)--------|--(3)--------|--(3)----*|


Duration Legend
---------------
W - whole; H - half; Q - quarter; E - 8th; S - 16th; T - 32nd; X - 64th; a - acciaccatura
+ - note tied to previous; . - note dotted; .. - note double dotted
Uncapitalized letters represent notes that are staccato (1/2 duration)
Irregular groupings are notated above the duration line
Duration letters will always appear directly above the note/fret number it represents the
duration for.  Duration letters with no fret number below them represent rests.  Multi-
bar rests are notated in the form Wxn, where n is the number of bars to rest for.  Low
melody durations appear below the staff

Tablature Legend
----------------
 h   - hammer-on
 p   - pull-off
 b   - bend
 pb  - pre-bend
 r   - bend release (if no number after the r, then release immediately)
 /\  - slide into or out of (from/to "nowhere")
 s   - legato slide
 S   - shift slide
  - natural harmonic
[n]  - artificial harmonic
n(n) - tapped harmonic
 ~   - vibrato
 tr  - trill
 T   - tap
 TP  - trem. picking
 PM  - palm muting
\n/  - tremolo bar dip; n = amount to dip
 \n  - tremolo bar down
 n/  - tremolo bar up
/n\  - tremolo bar inverted dip
 =   - hold bend; also acts as connecting device for hammers/pulls
 <>  - volume swell (louder/softer)
 x   - on rhythm slash represents muted slash
 o   - on rhythm slash represents single note slash

Misc Legend
-----------
 |  - bar
||  - double bar
||o - repeat start
o|| - repeat end
*|  - double bar (ending)
 :  - bar (freetime)
 $  - Segno
 &  - Coda
Tempo markers -  = BPM(8/16=s8/s16), where s8 = swing 8ths, s16 = swing 16ths
Related for Best tab
Advertisement will be closed in 10 seconds