Song name
# A B C D E F G H I J K L M N O P Q R S T U V W X Y Z

Cartel - Honestly tab

"Honestly" by Cartel

I tabbed this song out in Drop C, because my band is going to cover this song, and all 
original songs are in Drop C.  This just makes it a little easier to play, while at the 
time making it so that we don't have to switch tunings.

Enjoy.  I hope you find this helpful.

Questions?  Comments?  Email me at:  tariq112003@yahoo.com

DROP C Tuning (CGCFAD)

Tabbed by Tariq Abulaila

Intro

Guitar 1
|--8-6---------------|
|------9-8-6-8-6-----|
|-----------------8--|
|--------------------|
|--------------------|
|--------------------|

Guitar 2
|---------------------|
|--9-8---------8------|
|------10-8-10---10-8-|
|---------------------|
|---------------------|
|---------------------|


Verse:

Guitar 1
|------------------------------------|
|------------------------------------|
|--------88--77---------8-8-77/8-88--|
|-66/88--88--88--66/88--8-8-88/8-88--|
|-66/88--66--55--66/88--6-6-55/6-66--|
|-66/88----------66/88---------------|

Guitar 2
|--------------------|
|--------------------|
|-8------------------|32x
|-x------------------|
|-6------------------|
|--------------------|

Prechorus:

Both guitars
|---------------------|
|---------------------|
|---------------------|
|-10--8--6------------|
|-10--8--6------------|
|-10--8--6------------|

|---------------------|
|---------------------|
|--------8------------|
|-10--8--8------------|
|-10--8--6------------|
|-10--8---------------|


Chorus:

|---------------------------------------------------------------|
|---------------------------------------------------------------|
|-88888888------------------------------------------------------|
|-88888888-1010\66666666--101010101010-888888-666666--88888888--|
|-66666666-1010\66666666--101010101010-888888-666666--88888888--|
|----------1010\66666666--101010101010-888888-666666--88888888--|

Then back to the verse with this:

Guitar 2
|--------------------|
|--------------------|
|-8------------------|8x
|-x------------------|
|-6------------------|
|--------------------|

Verse

Guitar 1
|------------------------------------|
|------------------------------------|
|--------88--77---------8-8-77/8-88--|
|-66/88--88--88--66/88--8-8-88/8-88--|
|-66/88--66--55--66/88--6-6-55/6-66--|
|-66/88----------66/88---------------|

Guitar 2
|----------------------|
|------8-9-8-----------|
|-8-10-------10-8------|
|----------------------|
|----------------------|
|----------------------|

Chorus

Bridge
|-----------------------|
|-----------------------|
|----88-1010------------|
|-10-88-1010-666--------|
|-10-66--8-8-666--------|
|-10---------666--------|

Guitar 2
|-------------11\\\--15\\\-|
|-------13\\\--------------|
|-12\\\--------------------| wah and tremolo picking
|--------------------------|
|--------------------------|
|--------------------------|

Chorus

Outro
Guitar 1
|-----6-8-6------------6-11-6------|
|-8-9-------9-8----8-9--------8-9--|
|----------------------------------|
|----------------------------------|
|----------------------------------|
|----------------------------------|

Guitar 2
|-------------------------------------|
|------8-9-8--------------8-11-8------|
|-8-10-------10-8----8-10--------10-8-|
|-------------------------------------|
|-------------------------------------|
|-------------------------------------|
Tap to rate this tab
# A B C D E F G H I J K L M N O P Q R S T U V W X Y Z