Song name
# A B C D E F G H I J K L M N O P Q R S T U V W X Y Z

Cartel - Runaway tab

Runaway Tab
Album: Chroma
Tuning: Dropped D
By: Cartel

I know that the band plays in Standard tune but i decided to make a dropped d 
version cause its easier this way anyways please rate and comment, enjoy


Verse 1:                                                                 x2 
e[-------------------------------------------------------------------------]
B[-------------------------------------------------------------------------]
G[-888888888888-10101010101010101010-666666666666666-----------------------]
D[-888888888888-10101010101010101010-666666666666666-----------------------]
A[-666666666666-8-8-8-8-8-8-8-8-8-8--444444444444444-----------------------]
D[-------------------------------------------------------------------------]
   ............ . . . . . . . . . .  ...............

Verse 1: [cont'd]
e[-------------------------------------------------------------------------]
B[-------------------------------------------------------------------------]
G[-888888888888-8~---------------------------------------------------------]
D[-888888888888-8~---------------------------------------------------------]
A[-666666666666-8~---------------------------------------------------------]
D[-------------------------------------------------------------------------]
   ............


Chorus 1:
e[-------------------------------------------------------------------------]
B[-------------------------------------------------------------------------]
G[-8~----------------------------------------------------------------------]
D[-8~------6~-------3~--66-88-1010-88-66-----------------------------------]
A[-6~------6~-------3~--66-88-1010-88-66-----------------------------------]
D[---------6~-------3~--66-88-1010-88-66-----------------------------------]


Verse 2:   
e[-------------------------------------------------------------------------]
B[-------------------------------------------------------------------------]
G[-888888888888-10101010101010101010-666666666666666-88888888888-----------]
D[-888888888888-10101010101010101010-666666666666666-88888888888-----------]
A[-666666666666-8-8-8-8-8-8-8-8-8-8--444444444444444-66666666666-----------]
D[-------------------------------------------------------------------------]
   ............ . . . . . . . . . .  ............... ...........


Verse 2: [cont'd]                                                         x2
e[-------------------------------------------------------------------------]
B[-------------------------------------------------------------------------]
G[-------------------------------------------------------------------------]
D[-666-6-666-6-666-6-666-6-666-6-666-6-------------------------------------]
A[-666-6-666-6-666-6-666-6-666-6-666-6-------------------------------------]
D[-666-6-666-6-666-6-666-6-666-6-666-6-------------------------------------]
   ...   ...   ...   ...   ...   ...


Chorus 2:                                                                 x2
e[-------------------------------------------------------------------------]
B[-------------------------------------------------------------------------]
G[-888888888888888---------------------------------------------------------]
D[-666666666666666-666666666666666-333333333333333--66-88-1010-88-66-------]
A[-666666666666666-666666666666666-333333333333333--66-88-1010-88-66-------]
D[-----------------666666666666666-333333333333333--66-88-1010-88-66-------]


Solo:
e[-------------------------------------------------------------------------]
B[-12~-15-12-15-12-8-9-10-11-12-8~-11-10-9-8-9-10-11-----------------------]
G[---------------------------------------------------10b-------------------]
D[--------------------------------------------------------3-5-7-8-7-5-3~---]
A[-------------------------------------------------------------------------]
D[-------------------------------------------------------------------------]


e[-------------------------------------------------------------------------]
B[-------------------------------------------------12-15b-14-12-10-8~------]
G[-10-12-12-10-10-10-10-10-12h14p----------10h12p14------------------------]
D[--------------------------------10h12p14---------------------------------]
A[-------------------------------------------------------------------------]
D[-------------------------------------------------------------------------]

[Repeat Chorus]

Outro: [The part where it goes u get what u get over and over]
e[-----------------------|-------------------------------------------------]
B[-----------------------|-------------------------------------------------]
G[-----------------------|--------888888~----------------------------------]
D[-66-88-1010-88-66-6666-|-666666-888888~----------------------------------]
A[-66-88-1010-88-66-6666-|-666666-666666~----------------------------------]
D[-66-88-1010-88-66-6666-|-666666------------------------------------------]
 [Play^this^as^many^times as in the song]


Tap to rate this tab
 
# A B C D E F G H I J K L M N O P Q R S T U V W X Y Z