Guitaretab - guitar tabs
Song name
# A B C D E F G H I J K L M N O P Q R S T U V W X Y Z

Cartel - Say Anything Else tab

intro: guitar 1
eb-------------------2-2-222-------------------------2-2-222--------->
Bb-------------------3-3-333-------------------------3-3-333--------->
Gb-------------------2-2-222-------------------------2-2-222--------->
Db---5-5-555-2-2-222-0-0-000-7-7-799-5-5-555-2-2-222-0-0-000-7-7-799->
Ab---5-5-555-2-2-222-0-0-000-7-7-799-5-5-555-2-2-222-0-0-000-7-7-799->
Db---5-5-555-2-2-222-0-0-000-7-7-799-5-5-555-2-2-222-0-0-000-7-7-799->
and baby donít follow their lead cause you never know just how the story
ends or how the story goes and

intro: guitar 1                                        |guitar 2
eb-----------------2-2-222------------------------|5-5-55-5555-55-5-5~->
Bb-----------------3-3-333------------------------|3-3-33-3333-33-3-3~->
Gb-----------------2-2-222------------------------|2-2-22-2222-22-2-2~->
Db-5-5-555-2-2-222-0-0-000-7-7-799-5-5-555-2-2-222|0-0-00-0000-00-0-0~->
Ab-5-5-555-2-2-222-0-0-000-7-7-799-5-5-555-2-2-222|0-0-00-0000-00-0-0~->
Db-5-5-555-2-2-222-0-0-000-7-7-799-5-5-555-2-2-222|0-0-00-0000-00-0-0~->
you are so confused baby, its just like you to say anything else

verse 1: guitar 1
eb----------------------------------------------------------------->
Bb----------------------------------------------------------------->
Gb----------------------------------------------------------------->
Db-5-5-5-5-5-5-5-5-0-0-0-0-0-0-0-0-5-5-5-5-5-5-5-5-0-0-0-0-0-0-0-0->
Ab-5-5-5-5-5-5-5-5-0-0-0-0-0-0-0-0-5-5-5-5-5-5-5-5-0-0-0-0-0-0-0-0->
Db-5-5-5-5-5-5-5-5-0-0-0-0-0-0-0-0-5-5-5-5-5-5-5-5-0-0-0-0-0-0-0-0->
   * * * * * * * * * * * * * * * * * * * * * * * * * * * * *
whenever you get this way just getting up for the letdown mmm here they
come and yes, theyíre here to stay just getting up for the letdown here to
say that

verse 1: guitar 2
eb----------------------------------------------------------------->
Bb----------------------------------------------------------------->
Gb----------------------------------------------------------------->
Db-5-5-5-5-5-5-5-5-0-0-0-0-0-0-0-0-5-5-5-5-5-5-5-5-222022202222222->
Ab-5-5-5-5-5-5-5-5-0-0-0-0-0-0-0-0-5-5-5-5-5-5-5-5-222022202222222->
Db-5-5-5-5-5-5-5-5-0-0-0-0-0-0-0-0-5-5-5-5-5-5-5-5-222022202222222->
youíre the star you want to be just open up and look inside you will say
yeah

chorus: guitar 2
eb----------------------------------------------------------->
Bb----------------------------------------------------------->
Gb-777777777777777-777777777777777--------------------------->
Db-777777777777777-777777777777777-9-+7-7--22202220-9-+7-7-5->
Ab-555555555555555-555555555555555-9-+7-7--22202220-9-+7-7-5->
Db-----------------555555555555555-9-+7-7--22202220-9-+7-7-5->
someday youíll sing it out loud one day this will make you proud whoa I
know whoa

fill: guitar 1
eb----------->
Bb----------->
Gb-777777777->
Db-777777777->
Ab-555555555->
Db-000000000->

---REPEAT INTRO

verse 2: guitar 1
eb----------------------------------------------------------------->
Bb----------------------------------------------------------------->
Gb----------------------------------------------------------------->
Db-5-5-5-5-5-5-5-5-0-0-0-0-0-0-0-0-5-5-5-5-5-5-5-5-0-0-0-0-0-0-0-0->
Ab-5-5-5-5-5-5-5-5-0-0-0-0-0-0-0-0-5-5-5-5-5-5-5-5-0-0-0-0-0-0-0-0->
Db-5-5-5-5-5-5-5-5-0-0-0-0-0-0-0-0-5-5-5-5-5-5-5-5-0-0-0-0-0-0-0-0->
   * * * * * * * * * * * * * * * * * * * * * * * * * * * * * * * *
itís time for you to understand stop getting up for the letdown oh, who you
are is not up to them stop getting up for the letdown
[ Tab from: http://www.guitaretab.com/c/cartel/64556.html ]
verse 2: guitar 1
/eb------------------------------------------------------------------>\
|Bb------------------------------------------------------------------>|
|Gb------------------------------------------------------------------>|
|Db-7975--57-7975--57-7975--57-7975--57-79712--57-797222444555777777->|
|Ab-----57-------57-------57-------57--------57------222444555777777->|
|Db--------------------------------------------------222444555777777->|
|                                                                     |
|verse 2: guitar 2                                                    |
|eb------------------------------------------------------------------>|
|Bb------------------------------------------------------------------>|
|Gb------------------------------------------------------------------>|
|Db-\5-5-5-5-5-5-5-5-0-0-0-0-0-0-0-0-5-5-5-5-5-5-5-5-222444555777777->|
|Ab-\5-5-5-5-5-5-5-5-0-0-0-0-0-0-0-0-5-5-5-5-5-5-5-5-222444555777777->|
\Db-\5-5-5-5-5-5-5-5-0-0-0-0-0-0-0-0-5-5-5-5-5-5-5-5-222444555777777->/
Iím here to say that youíre the star you want to be just open up and look
inside you will say yeah

---REPEAT CHORUS

---REPEAT CHORUS
someday youíll sing it out loud one day this will make you proud whoa I
know I know itís never good enough

bridge: guitar 1
/eb----------------------------------------------------------->\
|Bb----------------------------------------------------------->|
|Gb-9997999799979--------------------------------------------->|
|Db---------------9997999799979-5442444244424-222222222222222->|
|Ab-------------------------------------------222222222222222->|
|Db-------------------------------------------222222222222222->|
|                                                              |
|bridge: guitar 2                                              |
|eb----------------------------------------------------------->|
|Bb----------------------------------------------------------->|
|Gb-9999999999999-7777777777777-9999999999999----------------->|
|Db-9999999999999-7777777777777-9999999999999-222222222222222->|
|Ab-7777777777777-5555555555555-7777777777777-222222222222222->|
\Db---------------5555555555555-7777777777777-222222222222222->/
so say what you want you gotta mean it when you say what you want
everybodyís on your mind and youíre saying anything to get you by so

bridge: guitar 1
/eb----------------------------------------------------------------------->\
|Bb----------------------------------------------------------------------->|
|Gb-9997999799979--------------------------------------------------------->|
|Db---------------9997999799979-5442444244424-22445577722445577722445-70~->|
|Ab-------------------------------------------22445577722445577722445-70~->|
|Db-------------------------------------------22445577722445577722445-70~->|
|                                                                          |
|bridge: guitar 2                                                          |
|eb----------------------------------------------------------------------->|
|Bb----------------------------------------------------------------------->|
|Gb-9999999999999-7777777777777-9999999999999----------------------------->|
|Db-9999999999999-7777777777777-9999999999999-22445577722445577722445-70~->|
|Ab-7777777777777-5555555555555-7777777777777-22445577722445577722445-70~->|
\Db---------------5555555555555-7777777777777-22445577722445577722445-70~->/
to get what you want you gotta mean it when you say what you want or youíre
wasting everybodyís time just saying anything to get you by and itís not
gonna get you by

fill: guitar 1
eb-0~--0~------>
Bb-0~--0~------>
Gb-4~--2~------>
Db-4~--2~--5~-->
Ab-2~--0~--5~-->
Db---------5~-->

---REPEAT CHORUS

chorus: guitar 2
eb------------------------------------------------------------------------->
Bb------------------------------------------------------------------------->
Gb-77777777777777-7777777777777-------------------------------------------->
Db-77777777777777-7777777777777-9-+7-7--22202220-9-+7-7-5555-9-7-2--9-7-0~->
Ab-55555555555555-5555555555555-9-+7-7--22202220-9-+7-7-5555-9-7-2--9-7-0~->
Db----------------5555555555555-9-+7-7--22202220-9-+7-7-5555-9-7-2--9-7-0~->
someday youíll sing it out loud one day this will make you proud whoa I
know whoa whoa I know I know itís not good enough
Related for Say Anything Else tab