Song name
# A B C D E F G H I J K L M N O P Q R S T U V W X Y Z

Carter Burwell - Bellas Lullaby tab

-------------------------------------------------------------------------------
Bella’s Lullaby by Carter Burwell (Twilight Movie)
-------------------------------------------------------------------------------
Tabbed by: Debbie
Email: bruins_4_u@yahoo.com

Nice piece by Carter Burwell.

Have watched a few different interpretations of Bellas Lullaby on the piano on youtube 
came up with a guitar tab for this song.

I havent tried playing this entire piece in one sitting (and almost without mistakes) 
but it should sound similar to the original score.


Tuning: Standard

     *        *        * (so on and so forth)
e|---2----2---3---3----2----2---0---0----2----2---3---3-/--6--5----5----------|
B|---3--3---3-3-3---3--3--3---3-3-3---3--3--3---3-3-3-----------3--3--3-------|
G|---2--------3--------2--------3--------2--------3---------------------------|
D|---0-----------------0-----------------0--------------------0---------------|
A|----------------------------------------------------------------------------|
E|----------------------------------------------------------------------------|
  *strum chords to give a fuller sound

e|---3----3------2-----2----3---3----3-------------0----2-----2-----2-----2---|
B|---3-3----3----3--3--3--3---3---3--3-----3---3--------3-----3-----3-----3---|
G|---3-----------2-------------------3--3----2---2---2--2--2-----2-----2--2-2-|
D|---------------0-------------------0------------------4--4-----4-----4--4-4-|
A|----------------------------------------------------------------------------|
E|----------------------------------------------------------------------------|

e|---3-----3-----3-----3--3---|
B|---3-----3--3--3--3--3--3---|
G|---3--3--3--3--3--3--3--3---|
D|---5--5--5-----5-----5--5---|
A|---5--------------------5---|
E|---3--------------------3---|
  cresc <	   rit. poco a poco

e|---0--------------0-------------0-------------0------------------|
B|---0--3--0----3-----3--0----3-----3--0----3-----3--0-----3-------|
G|---2-------2-------------2-------------2--------------2----------|
D|---2-------------------------------------------------------------|
A|---0----------0---0---------0---0---------0---0----------0---0---|
E|-----------------------------------------------------------------|
    [ - 3 - ]       [ - 3 - ]     [ - 3 - ]     [ - 3 - ]

e|-------------------------------------------------0-----------------------|
B|---11-10-----------------------------0h1-------1------1---------------0--|
G|---------12-9----12----2---2-----------------0--------------0h2-----2----|
D|--------------12----9----2---2----2-------------------------------2------|
A|-----------------------0--------0----------3--------3-----------0--------|
E|-------------------------------------------------------------------------|

e|-----------------------------------------------------------2h3------------------|
B|----------------11-10---------------------0h1-----------------------4h5---------|
G|-----2----------------12-9----12-----2-----------2----------------0-------------|
D|-------2-------------------12----9-\-2--2------2---2-----2----------------------|
A|---0---------0-----------------------0-------0---------3--------3---------------|
E|----------0-->------------------------------------------------------------------|
            >
	(stress on notes)

e|-------3-/-5-----------|------2-------------------2------------------2--0-------|
B|-----------------------|--0--------0-------------------0----------0-------3-----|
G|------------------0h2--|--0-------------0-------0------------0h2--0-------------|
D|-----2----------2------|--0-0---------0---4--2------------0---------------------|
A|---0----------0--------|---------------------3------3--3-----3------------------|
E|-----------------------|--3-----0--0------0-----------------------3-------3--3--|

e|------------------------------------|-------------------------------------------|
B|---1--0-----------------------------|---11-10-----------------------0-----0h1---|
G|------------2--0--------------------|---------12-9----12-----2----2-------------|
D|------------2----4--2----0----------|--------------12----9-\-2--2-------2-------|
A|------------3-------3--3---2-----0--|------------------------0--------0---------|
E|---------3---------------------0->--|-------------------------------------------|
            		                    >
			                        (stress on notes)

e|------2-2-----2-2-/-5-7--7----------|------------------------------------------------|
B|----------1-1-----------------------|---0-3-3-1-1-0-0------------0-0-3-3----3-3-1-1--|
G|------2-2-----2-2-/-5-7--7----0h2---|---0-------------0------0-0-0-------------------|
D|---0------2-2---0---4-6--6----------|---0----------------2-2---2---------------------|
A|------------------------------------|--------------------3-----3-3-----3-------------|
E|------------------------------------|---3-----3-----3---------------------3-----3----|
      < gently and softly >

e|----------------------0-0--2------------------------0-0--5-5-------------------------|
B|---0-0------------0-0------0--3-3-1-1-0-0-------1-1-1---------0-3-3-1-1-0-0----------|
G|-------0------0-0-0--------0--------------2-0-0---0-0---------0-------------2-0-0----|
D|----------2-2---2---------------------------2---------------------------------2------|
A|----------3-----3-3-----3-------------------3-----3-3------3------------------3------|
E|-----3---------------------3------3-----3---------------------3-----3-----3----------|

e|-------0-0-5-5-----5-5-3-0-0----------------0-0-3-3-7-7-10-10--10-------5-5-3-0-0-----|
B|---1-1-1---------------------3-0--------------------------------------------------3-0-|
G|-----0-0-----------------------0--2--2------0-0-4-4-7-7-11-11--11-------------------0-|
D|----------------3----3-2----------0--0---3------------------0---0--0--3---3-2---------|
A|-----3-3-----3-----------3---2------------------------------------------------3---2---|
E|-------------------------------3-(0)------------------------------------------------3-|

e|----------------------|
B|----------------------|
G|---2--2~-x------------|
D|---0--0~-x--0h2-------|
A|----------------------|
E|--(0)-----------------|
  < gently and softly >

e|--------------------------------0-0--2----------------------------0-0--2---|
B|---0-3-3-1-1-0-0------------0-0---------3-3-1-1-0-0-----------0-0------0---|
G|---0-------------0------0-0-0-----------------------0-----0-0-0--------0---|
D|---0----------------2-2---2---------------------------2-2---2--------------|
A|--------------------3-----3-3-----3-------------------3-----3-3-----3------|
E|---3-----3-----3----3----------------3------3-----3---3----------------3---|

e|---------------------------0-0-5-5--7~------|
B|----3-3-1-1-0-0--------1-1-1--------0~------|
G|----------------2--0-0---0-0-----5--7~------|
D|-------------------2----------------5~------|
A|-------------------3-----3-3-----3----------|
E|--------3-----3-----------------------------|
     cresc <	     rit. poco a poco


************************************

| /   	slide up
| \   	slide down
| h   	hammer-on
| ~   	vibrato
| x   	Mute note
| [-3-]	triplet notes

************************************
Tap to rate this tab
# A B C D E F G H I J K L M N O P Q R S T U V W X Y Z