Song name
# A B C D E F G H I J K L M N O P Q R S T U V W X Y Z

Cas Haley - Show You Love tab

SHOW YOU LOVE - Cas Haley
_________________________

Ok. This is my first attempt. HELP!!!
I can't get the rest. only just the verses but not the chorus.

|------------------|------------------|------------------|-------------------|
|------------------|------------------|-----------0h3p0--|-----------0h3p0---|
|-----------0------|-----------0------|--------0--------0|--------0--------0-|
|--------0-----0---|--------0-----0---|-----0------------|-----0-------------|
|-----2-----------2|-----2-----------2|--2---------------|--2----------------|
|--3---------------|--3---------------|------------------|-------------------|

|-----------0------|-----------0------|------------------|-------------------|
|--------0-----0---|--------0-----0---|------------------|-------------------|
|-----2-----------2|-----2-----------2|-----------0------|-----------0-------|
|--0---------------|--0---------------|--------0-----0---|--------0-----0----|
|------------------|------------------|-----2-----------2|-----2-----------2-|
|------------------|------------------|--3---------------|--3----------------|
Tap to rate this tab
 
# A B C D E F G H I J K L M N O P Q R S T U V W X Y Z