Song name
# A B C D E F G H I J K L M N O P Q R S T U V W X Y Z

Casualties - Nightmare tab

standard tuning

intro

----------------------------------
----------------------------------
-7-5---7-10-10-7-5---12-10--------
-7-5-7-7-10-10-7-5-7-12-10--------
-5-3-7-5-8--8--5-3-7-10-8---------
-----5-------------5--------------

intro 2

------------------
------------------
-5/777------------
-5/777------------
-3/555------------
------------------

verse

-------------------------------------------------
-------------------------------------------------
-7777-5---7777-10-10-7777-5---12121212-10--------
-7777-5-7-7777-10-10-5555-5-7-12121212-10--------
-5555-3-7-5555-8--8--5555-3-7-10101010-8---------
--------5-------------------5--------------------

chorus

-------------------------------------------------
-------------------------------------------------
----1010--7--------------1010--12----------------
-7--1010--7---[x3]----7--1010--12----------------
-7--8-8---5-----------7--8-8---10----------------
-5--------------------5--------------------------

solo

-----------------------------------------------------------
-----------------------------------------------------------
--5-3---3-5-3---3-5-3---3-5b-----------------------3-------
------5-------5-------5------3-0-3-0-3-0-3-0-3-0-3---3-5b--
-----------------------------------------------------------
-----------------------------------------------------------

-----------------------------------------------------------
-xxxx----------5-5-7-7-------------------------------------
-xxxx--5-5-7-7---------7-5---------------------------------
-xxxx----------------------5-3-0---------------------------
-xxxx------------------------------------------------------
-----------------------------------------------------------


outro
-------------------------------------------------
-------------------------------------------------
----1010--7--------------1010--12----------------
-7--1010--7---[x7]----7--1010--12----------------
-7--8-8---5-----------7--8-8---10----------------
-5--------------------5--------------------------

order
intro x2
intro2 x8
verse x4
intro2 x4
chorus x1
verse x4
intro2 x4
chorus x1
verse x4
intro2 x4
chorus x2
intro x1
solo
verse x2
intro x4
outro x1

thats the whole thing..peace and unity
Tap to rate this tab
# A B C D E F G H I J K L M N O P Q R S T U V W X Y Z