Song name
# A B C D E F G H I J K L M N O P Q R S T U V W X Y Z

Casualties - Punx And Skins tab

 The Casualties -  Punx and Skinz 


    (A)	        (C)       (d)     (E) (C) (d)
e|-------------------------------------------|
B|-------------------------------------------|
G|---------------------/---7-----/-9------7--|
D|---7-----/---10------/-----7---/-9--10--7--|
A|-----7---/------10---/-5-----5-/-7--10--5--|
E|-5-----5-/-8-------8----------------8------|

    (A)	        (C)       (d)     (E) (C) (d)
e|-------------------------------------------|
B|-------------------------------------------|
G|---------------------/---7-----/-9------7--|3x
D|-7-7-----/---10------/-----7---/-9--10--7--|
A|-7---7---/------10---/-5-----5-/-7--10--5--|
E|-5-----5-/-8-------8----------------8------|

  (A)
e|-------------------------------------------|
B|-------------------------------------------|
G|-------------------------------------------|
D|-7~~~~~~~~~--------------------------------|
A|-7~~~~~~~~~--------------------------------|
E|-5~~~~~~~~~--------------------------------|

Guitar 2  Intro
e|-------------------------------------------|
B|-------------------------------------------|
G|-------------------------------------------|
D|-------------------------------------------|
A|-------------------------------------------|
E|-------------------------------------------|

			          (E)(C) (d)
e|-------------------------------------------|
B|-------------------------------------------|
G|---------------------------------9------7--|
D|---------------------------------9--10--7--|
A|---------------------------------7--10--5--|
E|------------------------------------8------|

  (A)                             (E)(C) (d)
e|-------------------------------------------|
B|-------------------------------------------|
G|---------------------------------9------7--|2x
D|-7~~~~~~~~~----------------------9--10--7--|
A|-7~~~~~~~~~----------------------7--10--5--|
E|-5~~~~~~~~~-------------------------8------|

  (A)
e|-------------------------------------------|
B|-------------------------------------------|
G|-------------------------------------------|
D|-7~~~~~~~~~--------------------------------|
A|-7~~~~~~~~~--------------------------------|
E|-5~~~~~~~~~--------------------------------|


Verse
     (A)   (C) (D)    (E)   (C)  (D)
e|--------------------------------------------|
B|--------------------------------------------|
G|------------------9-9-9-9-------------------|4x
D|-7-7-7-7--10--12--9-9-9-9--10--12-----------|
A|-7-7-7-7--10--12--7-7-7-7--10--12-----------|
E|-5-5-5-5--8---10-----------8---10-----------|



Chorus
     (A)   (G)(d)   (A)   (G)(d)	          
e|----------------------------------------------|  
B|----------------------------------------------|   |
G|-------------7--------------7-----------------|   |
D|-7-7-7-7--5--7--7-7-7-7--5--7-----------------|   |
A|-7-7-7-7--5--5--7-7-7-7--5--5-----------------|   |
E|-5-5-5-5--3-----5-5-5-5--3--------------------|   |
              				        |   |2x
     (A)   (G)(d)			        |   |
e|----------------------------------------------|   |
B|----------------------------------------------|   |
G|-------------7--9-9-9-9-9-9-9-9---------------|   |
D|-7-7-7-7--5--7--9-9-9-9-9-9-9-9---------------|   |
A|-7-7-7-7--5--5--7-7-7-7-7-7-7-7---------------|   |
E|-5-5-5-5--3-----------------------------------|  
					          


Play Verse
Play Chorus

Bridge
  (E)                (d)  (B)
e|----------------------------------------------|
B|----------------------------------------------|
G|-9-x-x-x-x-x-x-x-x--7-7-----------------------|
D|-9-x-x-x-x-x-x-x-x--7-7--9-9------------------|3x
A|-7-x-x-x-x-x-x-x-x--5-5--9-9------------------|
E|-------------------------7-7------------------|

  (E)                (d)  (g)
e|----------------------------------------------|
B|----------------------------------------------|
G|-9-x-x-x-x-x-x-x-x--7-7--12-12----------------|
D|-9-x-x-x-x-x-x-x-x--7-7--12-12----------------|
A|-7-x-x-x-x-x-x-x-x--5-5--10-10----------------|
E|----------------------------------------------|


Play Verse
Play Chorus

outro
  (A)(C) (D) (E) (C)(D) (A)(A)(A)
e|-------------------------------------------|
B|-------------------------------------------|
G|------------9------------------------------|
D|-7--10--12--9--10--12--7--7--7-------------|
A|-7--10--12--7--10--12--7--7--7-------------|
E|-5--8---10-----8---10--5--5--5-------------|
Tap to rate this tab
 
# A B C D E F G H I J K L M N O P Q R S T U V W X Y Z