Song name
# A B C D E F G H I J K L M N O P Q R S T U V W X Y Z

Casualties - Punk Rock Love tab

Help us improve GuitareTab! Take a short survey!
Punk Rock Love =]
Pretty Accurate. Awsome Song
Casualties Rock
IM me at InChains21

(Note: Play During Lyrics...Not Before)



(Intro)
D|--------------------------------------------|
A|--------------------------------------------|
F|--------------------------------------------|  (x2)
C|---------8-8-9-11-9-8-9-11-9-8-9------------|
G|----7-7-6-6-7-------------------------------|
C|---7-7--------------------------------------|

(Intro 2)
D|------------------------------------------------------------|
A|------------------------------------------------------------|  (x2)
D|---16-16-16-16-15---15-16-18-16-15-16-18-16-15--------------|
C|-16---------------16----------------------------------------|
G|------------------------------------------------------------|
C|------------------------------------------------------------|


D|-------------------------------------------------------------------|
A|-------------------------------------------------------------------|
F|-------------------------------------------------------------------|  (x2)
C|-16-16-16-15-16-15-16-16-16-15-16-15-16-16-16-18-16-15-16-18-16-15-16|
G|-------------------------------------------------------------------|
C|-------------------------------------------------------------------|


AHHHHHHHHHHHH


into a scene, full of lies
met you there, you seemed alright

gave you a love, gave you a heart
all you gave me broken heart

Broken heart, I want it back
Broken heart, I got it back

D|--------------------------------------------|
A|--------------------------------------------|
F|--------------------------------------------|  (x4)
C|--9----11--13--9-9--------------------------|
G|--9----11--11--7-7--------------------------|
C|--9----9---xx-------------------------------|


oh my love, oh my dear
what i gave you was so dear
oh my love, oh my dear
what i gave you was so dear

D|--------------------------------------------|
A|--------------------------------------------|
F|--------------------------------------------|  (x2)
C|--9----11--13--8-9--------------------------|
G|--9----11--11--6-7--------------------------|
C|--9----9---xx-------------------------------|


gave you a love, gave you a heart
all you gave me a broken heart
gave you a love, gave you a heart
all you gave me a broken heart

Broken heart, I want it back
Broken heart, I got it back
D|--------------------------------------------|
A|--------------------------------------------|
F|--------------------------------------------|  (x4)
C|--9----11--13--9----------------------------|
G|--9----11--11--7----------------------------|
C|--9----9---xx-------------------------------|



D|------------------------------------------------------------|
A|------------------------------------------------------------|  (x2)
D|---16-16-16-16-15---15-16-18-16-15-16-18-16-15--------------|
C|-16---------------16----------------------------------------|
G|------------------------------------------------------------|
C|------------------------------------------------------------|


gave you a love, gave you a heart
all you gave me a broken heart
gave you a love, gave you a heart
all you gave me a broken heart


D|--------------------------------------------|
A|--------------------------------------------|
F|--------------------------------------------|  (x2)
C|--9----11--13--8-9--------------------------|
G|--9----11--11--6-7--------------------------|
C|--9----9---xx-------------------------------|

Broken heart, I want it back
Broken heart, I got it back

D|--------------------------------------------|
A|--------------------------------------------|
F|--------------------------------------------|  (Until PUNK ROCK LOVE)
C|--9----11--13--9-9--------------------------|
G|--9----11--11--7-7--------------------------|
C|--9----9---xx-------------------------------|
PUNK ROCK LOVE!!!!!!!!!

D|--------------------------------------------|
A|--------------------------------------------|
F|--13--15------------------------------------|  
C|--------------------------------------------|
G|--------------------------------------------|
C|--------------------------------------------|

uhhhg



Related for Punk Rock Love tab