Song name
# A B C D E F G H I J K L M N O P Q R S T U V W X Y Z

Casualties - This Is Your Life tab

Band- The Casualties
Title- This Is Your Life
e-mail: iamtheowl133@aol.com

/ - Slide Up
~ - let ring
b - bend

::First Intro:: Let each note ring out
e|--------------------------------------------------------------------------|
B|-----(Play this 4x)---9-----9---/11--------11-----------------------------|
G|-8-8-9-9-8-8/11--------9-9-9--9----11-11-11--11---------------------------|
D|--9---9---9----11-------------------------------9~------------------------|
A|------------------------------------------------9~------------------------|
E|------------------------------------------------7~------------------------|


::Second Intro::
e|--------------------------------------------------------------------------|
B|--------------------------------------------------------------------------|
G|---11-9-7---12-9-7--------------------------------------------------------|
D|-9-11-9-7-9-12-9-7-7------------------------------------------------------|
A|-9--9-7-5-9-10-7-5-7------------------------------------------------------|
E|-7--------7--------5------------------------------------------------------|

::Verse::
e|--------------------------------------------------------------------------|
B|--------------------------------------------------------------------------|
G|---12-11-9---7-9-7--------------------------------------------------------|
D|-9-12-11-9-7-7-9-7-9------------------------------------------------------|
A|-9-10--9-7-7-5-7-5-9------------------------------------------------------|
E|-7---------5-------7------------------------------------------------------|


::Chorus::
e|--------------------------------------------------------------------------|
B|--------------------------------------------------------------------------|
G|-9---12----7--------------------------------------------------------------|
D|-9-9-12-12-7-7-9-xxxx-----------------------------------------------------|
A|-7-9-10-12-5-7-9-xxxx-----------------------------------------------------|
E|---7----10---5-7-xxxx-----------------------------------------------------|

Verse

Chorus

::Pre - Solo::
e|--------------------------------------------------------------------------|
B|--------------------------------------------------------------------------|
G|-(x3)-9-7----on 2nd time add this---7-9-7H9-------------------------------|
D|-7/9--9-7-9---------------------------------------------------------------|
A|-7/9--7-5-9---------------------------------------------------------------|
E|-5/7------7---------------------------------------------------------------|


::Solo::
e|---------10-9-7-----------------------------------------------------------|
B|12-10-12b------3333-2222-5-3-2-0-3-2-0000--3-2----3-2-0000-0-0------------|
G|----------------------------------------------2222----------2-------------|
D|--------------------------------------------------------------------------|
A|--------------------------------------------------------------------------|
E|--------------------------------------------------------------------------|


::Solo Continued::
e|-10-9-7777-10-9-------10-9-7777-------------------------------------------|
B|---------------10101010--------12-10-12b----------------------------------|
G|--------------------------------------------------------------------------|
D|-----------------^--------------------------------------------------------|
A|-----------------those are TENS not ones and zeros------------------------|
E|--------------------------------------------------------------------------|

Chorus

Verse

::Outro::
e|--------------------------------------------------------------------------|
B|--------------------------------------------------------------------------|
G|-9---12----7----------9---12----7-----------------------------------------|
D|-9-9-12-12-7-7-9-xxxx-9-9-12-12-7-7-5-4-2~--9-----------------------------|
A|-7-9-10-12-5-7-9-xxxx-7-9-10-12-5-7-5-4-2~--9-----------------------------|
E|---7----10---5-7-xxxx---7----10---5-3-2-0~--7-----------------------------|
Tap to rate this tab
# A B C D E F G H I J K L M N O P Q R S T U V W X Y Z