Song name
# A B C D E F G H I J K L M N O P Q R S T U V W X Y Z

Cavo - Crash tab

-----------------------------------------------------------------------------
			     CRASH - Cavo
-----------------------------------------------------------------------------

Tabbed By: Xanatos
Email: Dr4kex1@yahoo.com

I have to say, this is one of my favorite songs to play and sing at the same time. 
And with practice, I'm sure you can do it too. 

Tuning is drop D. 

Tuning (D, A, D, G, B, E)
Tempo 6/4

e|----------------------------------------------------------|
B|----------------------------------------------------------|
G|-------------------10-10-10-------10-10-10-------10-10-10-|
D|-x-x-x-x-x-x-3h5-5----------3h5-5----------3h5-5----------|
A|-x-x-x-x-x-x-3h5-5-8--8--8--3h5-5-8--8--8--3h5-5-8--8--8--|
D|-x-x-x-x-x-x-3h5-5----------3h5-5----------3h5-5----------|

e|----------------------------------------------------------|
B|----------------------------------------------------------|
G|-5--5-5---------------------------------------------------|
D|-5--5-5----3-3-3-3h5------7b-unb7-------------------------|
A|-3--3-3----3-3-3-3h5--------------------------------------|
D|-----------3-3-3-3h5--------------------------------------|

Verse (Listen to the song for the rhythm)
e|----------------------------------------------------------|
B|-3--s1----------------------------------------------------|
G|-4--s2----5-5-4-4--------------------R-E-P-E-A-T----------|
D|-5--s3-----5---5------------------------------------------|
A|----------------------------------------------------------|
D|----------------------------------------------------------|

Chorus x2 (Listen for rhythm)
e|----------------------------------------------------------|
B|----------------------------------------------------------|
G|--------5-------------10-10-10---------10-10-10-----------|
D|-3------5-----3h5-5------------3h5-5----------------------|
A|-3------3-----3h5-5---8--8--8--3h5-5---8--8--8------------|
D|-3------------3h5-5------------3h5-5----------------------|

"And I'll be here the next time that you crash..."
e|----------------------------------------------------------|
B|----------------------------------------------------------|
G|--------5-------------------------------------------------|
D|-3------5------5------------------------------------------|
A|-3------3------5------------------------------------------|
D|-3-------------5------------------------------------------|

Verse (Listen to the song for the rhythm)
e|----------------------------------------------------------|
B|-3--\1----------------------------------------------------|
G|-4--\2----5-5-4-4--------------------R-E-P-E-A-T----------|
D|-5--\3-----5---5------------------------------------------|
A|----------------------------------------------------------|
D|----------------------------------------------------------|

"Heartbreak... waiting to happen."
Count, 1, 2, 3, 4, 5, 6, (After the sixth count, the next count is silent)
e|----------------------------------------------------------|
B|-3--------------------------------------------------------|
G|-4--------------------------------------------------------|
D|-5--------------------------------------------------------|
A|----------------------------------------------------------|
D|----------------------------------------------------------|

Chorus x2 (Listen for rhythm)
e|----------------------------------------------------------|
B|----------------------------------------------------------|
G|--------5-------------10-10-10---------10-10-10-----------|
D|-3------5-----3h5-5------------3h5-5----------------------|
A|-3------3-----3h5-5---8--8--8--3h5-5---8--8--8------------|
D|-3------------3h5-5------------3h5-5----------------------|

"And I'll be here the next time that you crash..."
e|----------------------------------------------------------|
B|----------------------------------------------------------|
G|--------5-------------------------------------------------|
D|-3------5------5------------------------------------------|
A|-3------3------5------------------------------------------|
D|-3-------------5------------------------------------------|

Bridge
"Yeah, I'll be here the next time that you crash.. I'm right here in front of you.."
e|---------1------------------------------------------------|
B|----------1------3----------------------------------------|
G|-----------2-\5-5-5-------------------5-------------------|
D|-\7-5-3-3------5---5------3----3---3-3--------------------|
A|-------3---------------1-3--0-3---3-3---------------------|
D|---------------------------------5------------------------|
"Just ask and I'll hold your breath in my.."
e|----------------------------------------------------------|
B|----------------------------------------------------------|
G|----------------5-----------------------------------------|
D|----3----3---3-3------------------------------------------|
A|-1-3--0-3---3-3-------------------------------------------|
D|-----------5----------------------------------------------|

(Listen for rhythm)
"Hands and I'll save you when you crash!"
e|----------------------------------------------------------|
B|----------------------------------------------------------|
G|-333333-222222-333333-------------------------------------|
D|-333333-222222-333333-------------------------------------|
A|-111111-000000-111111-------------------------------------|
D|----------------------------------------------------------|

Bridge 2 x3
e|----------------------------------------------------------|
B|----------------------------------------------------------|
G|----------------------------------------------------------|
D|----------------------------------------------------------|
A|----------------------------------------------------------|
D|-3h5-5-0-2-0-2-0-2-0--------------------------------------|
Bridge 2' "When you crash..."
e|----------------------------------------------------------|
B|----------------------------------------------------------|
G|----------------------------------------------------------|
D|----------------------------------------------------------|
A|----------------------------------------------------------|
D|-3-3333-2-2222--------------------------------------------|
Bridge 2" x2
e|----------------------------------------------------------|
B|----------------------------------------------------------|
G|----------------------------------------------------------|
D|-3h5-55-0-2-0-2-0-2-0-------------------------------------|
A|-3h5-55-0-2-0-2-0-2-0-------------------------------------|
D|-3h5-55-0-2-0-2-0-2-0-------------------------------------|
Bridge 2"'
e|----------------------------------------------------------|
B|----------------------------------------------------------|
G|----------------------------------------------------------|
D|-3h5-55-0-2-0-2-0-2-0------2-2222-3-3333------------------|
A|-3h5-55-0-2-0-2-0-2-0------2-2222-3-3333------------------|
D|-3h5-55-0-2-0-2-0-2-0------2-2222-3-3333------------------|

Chorus x3 (Listen for rhythm)
e|----------------------------------------------------------|
B|----------------------------------------------------------|
G|--------5-------------10-10-10---------10-10-10-----------|
D|-3------5-----3h5-5------------3h5-5----------------------|
A|-3------3-----3h5-5---8--8--8--3h5-5---8--8--8------------|
D|-3------------3h5-5------------3h5-5----------------------|

End
"I'll be here the next time, I'll pick you up the next time.. you crash."
e|----------------------------------------------------------|
B|----------------------------------------------------------|
G|-----------5--------------5-------------------------------|
D|--3--------5-----3--------5------5------------------------|
A|--3--------3-----3--------3------5------------------------|
D|--3--------------3---------------5------------------------|





Tab Legend

| /   slide up  |
| \   slide down|
| h   hammer-on | 
| unb un-bend   |
Tap to rate this tab
 
# A B C D E F G H I J K L M N O P Q R S T U V W X Y Z